» » »

Chicosci, Seven Black Roses Tabs (ver.2)

Artists:  A B C D E F G H I J K L M N O P Q R S T U V W X Y Z # 

Seven Black Roses Tabs (ver.2)

Chicosci Tabs
 Rating:
4/5 (4 votes)
Seven Black Roses lessons Tabs too difficult? Try these video lessons and learn fast
                Intro:
(Lead)
e----------------------------------------------------------------------|
b----6h7-6h7-6h7-6h7-6h7-6h7-6h7-6h7-6h7-6h7---------------------------|
g----------------------------------------------------------------------|
d----------------------------------------------------------------------|
a----------------------------------------------------------------------|
e----------------------------------------------------------------------|
tapos may drum roll...
(Lead)
e----------------------------------------------------------------------|
b----6h7-6h7-6h7-6h7-6h7-6h7-6h7-6h7-6h7-6h7---------------------------|
g----------------------------------------------------------------------|(2x)
d----------------------------------------------------------------------|
a----------------------------------------------------------------------|
e----------------------------------------------------------------------|
(Rhythm)
e----------------------------------------------------------------------|
b----------------------------------------1111111111--------------------|
g----------------------------------------------------------------------|
d----------------------------------------2222222222--------------------|(2x)
a----7777777777--3333333333--5555555555--2222222222--3333333333--------|
e----5555555555--1111111111--3333333333--------------1111111111--------|

(Bass)
e----------------------------------------------------------------------|
b----------------------------------------------------------------------|
g----------------------------------------------------------------------|(2x)
d----------------------------------------------------------------------|
a----------------------------------------------------------------------|
e----5555555555--1111111111--3333333333--0000000000--1111111111--------|
Tapos
(Lead)
e----------------------------------------------------------------------|
b----6h7-6h7-6h7-6h7-6h7-6h7-6h7-6h7-6h7-6h7---------------------------|
g----------------------------------------------------------------------|
d----------------------------------------------------------------------|
a----------------------------------------------------------------------|
e----------------------------------------------------------------------|
(Rhythm)
e----------------------------------------------------------------------|
b----------------------------------------1111111111--------------------|
g----------------------------------------------------------------------|
d----------------------------------------2222222222--------------------|
a----7777777777--3333333333--5555555555--2222222222--3333333333--------|
e----5555555555--1111111111--3333333333--------------1111111111--------|

(Bass)
e----------------------------------------------------------------------|
b----------------------------------------------------------------------|
g----------------------------------------------------------------------|
d----------------------------------------------------------------------|
a----------------------------------------------------------------------|
e----5555555555--1111111111--3333333333--0000000000--1111111111--------|

________________________________________________
When I leave, I wanna wait for the silence
You gave me all you've got
But now I stand here waving to you
and still you smile, you're still looking back
maybe I just wasn't kind enough
I'm fighting urges to fall again,
Yet I stumble
Yet I stumble
________________________________________________
tapos...
(Lead)
e----------------------------------------------------------------------|
b----------------------------------------------------------------------|
g----------------------------------------------------------------------|
d----------------------------------------------------------------------|(5x)
a----7-7-7--3-3-3--10-10-10-10-10--------------------------------------|
e----5-5-5--1-1-1--8--8--8--8--8---------------------------------------|
(Rhythm)
e----------------------------------------------------------------------|
b----------------------------------------------------------------------|
g----------------------------------------------------------------------|
d----------------------------------------------------------------------|(5x)
a----7-7-7--3-3-3--10-10-10-10-10--------------------------------------|
e----5-5-5--1-1-1--8--8--8--8--8---------------------------------------|
(Bass)
e----------------------------------------------------------------------|
b----------------------------------------------------------------------|
g----------------------------------------------------------------------|
d----------------------------------------------------------------------|(5x)
a----------------------------------------------------------------------|
e----5-5-5--1-1-1--8-8-8-8-8-------------------------------------------|
_________________________________
These roses died three days since
Black roses died, we said goodbye
These roses died three days since
Im sorry, I miss you
_________________________________
tapos
No drums. No Bass. No Rhythm.
(Lead)
e----------------------------------------------------------------------|
b----6h7-6h7-6h7-6h7-6h7-----------------------------------------------|
g----------------------------------------------------------------------|
d----------------------------------------------------------------------|
a----------------------------------------------------------------------|
e----------------------------------------------------------------------|
STOP
tapos
Drum roll
tapos
(Lead)
e----------------------------------------------------------------------|
b----6h7-6h7-6h7-6h7-6h7-6h7-6h7-6h7-6h7-6h7---------------------------|
g----------------------------------------------------------------------|
d----------------------------------------------------------------------|
a----------------------------------------------------------------------|
e----------------------------------------------------------------------|
(Rhythm)
e----------------------------------------------------------------------|
b----------------------------------------1111111111--------------------|
g----------------------------------------------------------------------|
d----------------------------------------2222222222--------------------|
a----7777777777--3333333333--5555555555--2222222222--3333333333--------|
e----5555555555--1111111111--3333333333--------------1111111111--------|
(Bass)
e----------------------------------------------------------------------|
b----------------------------------------------------------------------|
g----------------------------------------------------------------------|
d----------------------------------------------------------------------|
a----------------------------------------------------------------------|
e----5555555555--1111111111--3333333333--0000000000--1111111111--------|
_____________________________________
How do I remain complete
When all we bled is lost?
We could've burned the earth and sky
A second chance
The seconds spent
Each other's shadow, should've known
I'm fighting urges to fall again,
Yet I stumble
Yet I stumble
_____________________________________
Tapos
(Lead)
e----------------------------------------------------------------------|
b----------------------------------------------------------------------|
g----------------------------------------------------------------------|
d----------------------------------------------------------------------|12x
a----7-7-7--3-3-3--10-10-10-10-10--------------------------------------|
e----5-5-5--1-1-1--8--8--8--8--8---------------------------------------|
(Rhythm)
e----------------------------------------------------------------------|
b----------------------------------------------------------------------|
g----------------------------------------------------------------------|
d----------------------------------------------------------------------|12x
a----7-7-7--3-3-3--10-10-10-10-10--------------------------------------|
e----5-5-5--1-1-1--8--8--8--8--8---------------------------------------|
(Bass)
e----------------------------------------------------------------------|
b----------------------------------------------------------------------|
g----------------------------------------------------------------------|
d----------------------------------------------------------------------|12x
a----------------------------------------------------------------------|
e----5-5-5--1-1-1--8-8-8-8-8-------------------------------------------|
_________________________________
These roses died three days since
Black roses died, we said goodbye
These roses died three days since
Im sorry, I miss you

These roses died three days since
Black roses died, we said goodbye
These roses died three days since
Im sorry, I miss you

I miss you
I miss you
I missed you oh
_________________________________
tapos
No drums. No Bass. No Rhythm.
(Lead)
e----------------------------------------------------------------------|
b-------6h7------------------------------------------------------------|47x
g----------------------------------------------------------------------|
d----------------------------------------------------------------------|
a----------------------------------------------------------------------|
e----------------------------------------------------------------------|
__________________________________
Hear this I'm yours
I'm at your feet
Inside this heart you still remain
but faded letters are erased
__________________________________
tapos
Drum roll
tapos
STOP
tapos
(Lead)
e----------------------------------------------------------------------|
b----------------------------------------------------------------------|
g----------------------------------------------------------------------|
d----------------------------------------------------------------------|12x
a----7-7-7--3-3-3--10-10-10-10-10--------------------------------------|
e----5-5-5--1-1-1--8--8--8--8--8---------------------------------------|
(Rhythm)
e----------------------------------------------------------------------|
b----------------------------------------------------------------------|
g----------------------------------------------------------------------|
d----------------------------------------------------------------------|12x
a----7-7-7--3-3-3--10-10-10-10-10--------------------------------------|
e----5-5-5--1-1-1--8--8--8--8--8---------------------------------------|
(Bass)
e----------------------------------------------------------------------|
b----------------------------------------------------------------------|
g----------------------------------------------------------------------|
d----------------------------------------------------------------------|12x
a----------------------------------------------------------------------|
e----5-5-5--1-1-1--8-8-8-8-8-------------------------------------------|
_________________________________
These roses died three days since
Black roses died, we said goodbye
These roses died three days since
Im sorry, I miss you
_________________________________
            
Submit corrections

comments powered by Disqus
↑ Back to top | Chicosci Tabs for Seven Black Roses. Lyrics for acoustic guitar and electric guitar. Tablatures and chords are parodies/interpretations of the original songs. You may use it for private study, scholarship, research or language learning purposes only