» » »

Chicosci, Matinee Tabs (ver.2)

Artists:  A B C D E F G H I J K L M N O P Q R S T U V W X Y Z # 

Matinee Tabs (ver.2)

Chicosci Tabs
Rating:
0/5 (0 votes)
Matinee lessons Tabs too difficult? Try these video lessons and learn fast
                
Paki rate nlng poh 2ng gnaw q poh ah……tnx
…….greet q rin poh mga friendz q……lalo na c elie……

Gtr.Legend:
. - palm mute
~ - Let it ring
/ - slide
h – hammer tone

Tuning: Drop D

Intro part 1:
e|------------------------------------------|
B|------------------------------------------|
G|-55555/1212121212-------------------------|
D|-77777/1414141414--77777-----7----7-------|
A|------------------------88888--7-7--7-7---|
D|------------------------------------------|

Intro part 2:
E|--------------------------------------------------------|
B|--------------------------------------------------------|   
G|--5-5-4-4-2--5-5-4-4-2----------------------------------| 2x
D|-------------------------5-5-3-3-2h3-5-5-3-3-2h3--------|
A|--------------------------------------------------------|
D|--------------------------------------------------------|

Verse:
E|----------------------------------------|
B|-----8------8--------8------8-----------|   
G|---7--7---7—-7-----7--7---7--7—8~-------| Repeat two times...
D|--7----7-7----7~--7----7-7----7---------| 
A|----------------------------------------|
D|----------------------------------------|

(Continuation) 
E|----------------------------|
B|----------------------------|   
G|----------------------------| 
D|--77777777--33333333--------| 4x
A|--77777777--33333333--------|
D|--77777777--33333333--------|
    ........  ........

(Continuation)
E|--------------|
B|--------------|   
G|--------------| 
D|--3~--3~------| 
A|--3~--3~------|
D|--3~--3~------|





Verse 1:

Everyone’s dressed
All in their sunday best
The shadows bathed in pink and black
Moonlight sets in, the conductor takes centerstage
And the people start to sway
And the band plays on

Chorus:          
E|----------------------------------------|
B|----------------------------------------|   
G|-99999-1212121212-1414141414-55555------| 
D|-77777-1010101010-1212121212-33333------| 4x
A|-77777-1010101010-1212121212-33333------|
D|-77777-1010101010-1212121212-33333------|

Chorus

We’re gonna dance the sun away
Tonight, we’re gonna dance the sun away
They’re spinning around and around again
They turn and hold hands
With their hands they send



Repeat intro part 1 & 2

Verse:
E|----------------------------------------|
B|-----8------8--------8------8-----------|   
G|---7--7---7—-7-----7--7---7--7—8~-------| Repeat two times...
D|--7----7-7----7~--7----7-7----7---------| 
A|----------------------------------------|
D|----------------------------------------|

(Continuation) 
E|----------------------------|
B|----------------------------|   
G|----------------------------| 
D|--77777777--33333333--------| 4x
A|--77777777--33333333--------|
D|--77777777--33333333--------|
    ........  ........

(Continuation)
E|--------------|
B|--------------|   
G|--------------| 
D|--3~--3~------| 
A|--3~--3~------|
D|--3~--3~------|


Verse 2:

The music plays, the ghosts fly over the stage
And they awake and dance with everyone
A masquerade in full swing, into
The right they all sing
Save us
And now the light is gone
So close our eyes
And let’s begin


Chorus:          
E|----------------------------------------|
B|----------------------------------------|   
G|-99999-1212121212-1414141414-55555------| 
D|-77777-1010101010-1212121212-33333------| 4x
A|-77777-1010101010-1212121212-33333------|
D|-77777-1010101010-1212121212-33333------|

Chorus

We’re gonna dance the sun away
Tonight, we’re gonna dance the sun away
They’re spinning around and around again
They turn and hold hands
With their hands they send

Bridge part:

Bridge part 1:
E|----------------------------------------|
B|----------------------------------------|   
G|-99999-1212121212-1414141414-55555------| 
D|-77777-1010101010-1212121212-33333------| 4x
A|-77777-1010101010-1212121212-33333------|
D|-77777-1010101010-1212121212-33333------|

Bridge part 2:
E|------------------|
B|------------------|   
G|------------------| 
D|--3~--3~--3~--3~--| 
A|--3~--3~--3~--3~--|
D|--3~--3~--3~--3~--|

Bridge 

They’ll all dance in this holiday
In a moonlight ballroom
Let the symphony fly
An invitation to sing one more time
          
Watch out be ready for
Repeat chorus
            

comments powered by Disqus
↑ Back to top | Chicosci Tabs for Matinee. Lyrics for acoustic guitar and electric guitar. Tablatures and chords are parodies/interpretations of the original songs. You may use it for private study, scholarship, research or language learning purposes only