» » »

Chicosci, Matinee Tabs (ver.1)

Artists:  A B C D E F G H I J K L M N O P Q R S T U V W X Y Z # 

Matinee Tabs (ver.1)

Chicosci Tabs
 Rating:
4.7/5 (12 votes)
Matinee lessons Tabs too difficult? Try these video lessons and learn fast
                
Elow po sa mga friends ko.. cla calvin,jong,otep,emak,tuts,.... at marami pang iba... at
mga friends ko sa MNHS (Annex).. Paki-rate po ung tab ko ah... HI nga pla Kay Maria 
Lourdes Vejar ng III-A MNHS(Annex).. HEHE.. Alam mo na yun


Gtr.Legend:
. - palm mute
~ - Let it ring
/ - slide


Tuning: Drop D

Intro part 1:
e|----------------------------------------------------|
B|----------------------------------------------------|
G|-55555555/12121212121212----------------------------|
D|-77777777/14141414141414--777777------7-----7-------|
A|--------------------------888888--7-7---7-7---------|
D|----------------------------------------------------|

Intro part 2:
E|-----------------------------------------------------|
B|-----------------------------------------------------|   
G|--5-5-4-4-2--5-5-4-4-2-------------------------------| 2x
D|-------------------------5-5-3-3-2--5-5-3-3-2--------|
A|-----------------------------------------------------|
D|-----------------------------------------------------|

Verse:
E|------------------|
B|-----8~----8------|   
G|---7-----7--7~----| Repeat Many times...
D|--7-----7---------| 
A|------------------|
D|------------------|

(Continuation) 
E|----------------------------|
B|----------------------------|   
G|----------------------------| 
D|--77777777--33333333--------| 2x
A|--77777777--33333333--------|
D|--77777777--33333333--------|
    ........  ........

(Continuation)
E|--------------|
B|--------------|   
G|--------------| 
D|--3~--3~------| 
A|--3~--3~------|
D|--3~--3~------|


Chorus:          
E|----------------------------------------|
B|----------------------------------------|   
G|-99999-1212121212-1414141414-55555------| 
D|-77777-1010101010-1212121212-33333------| 2x
A|-77777-1010101010-1212121212-33333------|
D|-77777-1010101010-1212121212-33333------|


Repeat Intro part 2
Repeat Verse
Repeat Chorus

Bridge part 1:
E|----------------------------------------|
B|----------------------------------------|   
G|-99999-1212121212-1414141414-55555------| 
D|-77777-1010101010-1212121212-33333------| 2x
A|-77777-1010101010-1212121212-33333------|
D|-77777-1010101010-1212121212-33333------|


Bridge part 2:
E|------------------|
B|------------------|   
G|------------------| 
D|--3~--3~--3~--3~--| 
A|--3~--3~--3~--3~--|
D|--3~--3~--3~--3~--|


Repeat Chorus

End


Matinee Lyrics:

Everyone’s dressed
All in their sunday best
The shadows bathed in pink and black
Moonlight sets in, the conductor takes centerstage
And the people start to sway
And the band plays on

We’re gonna dance the sun away
Tonight, we’re gonna dance the sun away
They’re spinning around and around again
They turn and hold hands
With their hands they send

The music plays, the ghosts fly over the stage
And they awake and dance with everyone
A masquerade in full swing, into
The right they all sing
Save us

And now the light is gone
So close our eyes
And let’s begin
They’ll all dance in this holiday
In a moonlight ballroom
Let the symphony fly
An invitation to sing one more time
            
Submit corrections

comments powered by Disqus
↑ Back to top | Chicosci Tabs for Matinee. Lyrics for acoustic guitar and electric guitar. Tablatures and chords are parodies/interpretations of the original songs. You may use it for private study, scholarship, research or language learning purposes only