» » »

Glass Is Broken Tabs (ver.1)

Artists:  A B C D E F G H I J K L M N O P Q R S T U V W X Y Z # 

Glass Is Broken Tabs (ver.1)

Chicosci
Rating:
0/5 (0 votes)

Hard to play? Try these video lessons and learn fast.
                Album:Method of breathing
-just play the guitar thats ol-

intro:                    

pm  . .       .          2nd gtr.
--4-4-4---------------|  |------------------------
--4-4-4--7/6--0-------|  |------------------------
--6-6-6--9/8--0-------|  |--4/0--6/0--7/0---6/0---
--6-6-6--9/8----------|  |--6/0--8/0--9/0---8/0---
----------------------|  |--7/0--9/0--10/0--9/0---
----------------------|  |------------------------
          8x
verse:
-------------------------------------|----------------------------------------
-------------------------------------|----------------------------------------
-------------------------------------|----------------------------------------
-9-9-9--8-8-8----6-6-6--8-8-8-8--8-8-|-9-9-9--9--8-8-8---6-6-6--8-8-8--8--8---
-9-9-9--9-9-12v--7-7-7--9-9-9-12-9-9-|-9-9-9--9--9-9-10--7-7-7--9-9-12-12-12--
-9-9-9-------------------------------|-9-9-12-12------------------------------

2nd gtr.                          last part   
---------------------------------|--------------
---------------------------------|--------------
-------------6-------------6-----|--------------
-6-4-6-4-6-4---6-4-6-4-6-4---4---|-6-4-6-4-6-4--
-------------------------------5-|--------------
---------------------------------|--------------
             4x

chorus:
pm . .       .   myself yeah....        2ng gtr.          myself yeah....
-4-4-4----------|-5-5-5--------|  |--------------------------------------------
-4-4-4--7/6--0--|-7-7-7--------|  |--4/0--6/0--7/0--6/0------------------------
-6-6-6--9/8--0--|-7-7-7--------|  |--6/0--8/0--9/0--8/0------------------------
-6-6-6--9/8-----|-6-6-6--------|  |--7/0--9/0--10/0-9/0------------------------
----------------|-5-5-5--------|  |-----------------------5-5-5-5-5-5-5-5-5-5-5
----------------|--------------|  |-----------------------5-7-7-7-7-7-7-7-5-7-7
      4x
pm . .   bring me to the light.    2nd gtr.    the light....                
-6-0-0-4--|-4-4--6-6--7-7--|      |-4-4--6-6-----------------------------
-6-0-0-4--|-4-4--6-6--7-7--|      |-4-4--6-6-----------------------------
-6-----6--|-6-6--8-8--9-9--|      |-6-6--8-8-----------------------------
----------|-6-6--8-8--9-9--|      |-6-6--8-8-----------------------------
----------|----------------|      |------------5-5-5-5-5-5-5-5-5-5-5-5---
----------|----------------|      |------------5-7-7-7-7-7-7-7-5-7-7-7---

                                  |-------------------------------------- 
                                  |-------------------------------------- 
                                  |-9-------9--9-9-----------------------
                                  |---8h9p8---------------10-10-8--------
                                  |----------11-9-9-8-9-8---8------------
                                  |--------------------------------------



after chorus 2:
-4-6-7------7-4---|--7---7---------7---|-------------------|-----------------|
-4-6-7--7-6-7-4---|----4---4-7-6-4---4-|-------------------|-----------------|
--------7-6---6---|--------------------|-9---9---------9---|-----------------|
--------------6---|--------------------|---6---6-9-8-6---6-|-6-9-6-9-6-------|
------------------|--------------------|-------------------|-----------7-9b--|
------------------|--------------------|-------------------|-----------------|
                            17x         8x(pm the first 4x)      

bridge:
                         2nd gtr.
-4-4-4--7-7-7--0-6-0--|  |-----------------------
-6-6-6--9-9-9--0-6-0--|  |-----------------------
-6-6-6--9-9-9---------|  |-----------------------
----------------------|  |-8-8-8--11-11-11-------
----------------------|  |-9-9-9--12-12-12-------
----------------------|  |-6-6-6---9--9--9-------

last part after chorus
--------------------------------------------------------------------
--------------------------------------------------------------------
--------------------------------------------------------------------
--------------------------------------------------------------------
------11-------11------11------11------11------11-------11------11--
-11-10---11-10---11-10---11-10---11-10----13-10---11-10----11-10----

---------------------------------------------------------------------
---------------------------------------------------------------------
---------------------------------------------------------------------
---------------------------------------------------------------------
-------11-----------11-----------11---11-11-11-11-11-11-11-11--------
-11-10---10-10-11-10--10-10-11-10--11-13-13-13-13-15-15-15-15--------

-4-6-8-----7----
-4-6-8-7-6-7----
-6-8-9-7-6------
-6-8-9----------
----------------
----------------



"tiz iz 4 clrissa f.,debbie b.,diana wy,karla palad, meredy m.(nanay ni leander)
test(nanay ni gori),bangie(nanay ni dominic at kapatid ni gerard incog un lang"
            
Hard to play? Try these video lessons and learn fast. | Correct




comments powered by Disqus
↑ Back to top | Tablatures and chords are parodies/interpretations of the original songs. You may use it for private study, scholarship, research or language learning purposes only