» » »

Chicosci, Gift Of Tongues Tabs (ver.1)

Artists:  A B C D E F G H I J K L M N O P Q R S T U V W X Y Z # 

Gift Of Tongues Tabs (ver.1)

Chicosci Tabs
Rating:
5/5 (2 votes)
Gift Of Tongues lessons Tabs too difficult? Try these video lessons and learn fast
                                     GIFT OF TONGUES BY: CHICOSCI

  TNX TO SONNY OF CHICOSCI,, FOR HAVING A LITTLE CONVERSATION AT YOUR GIG AT CONVERSE 
MEGATRADE HALL SM MEGAMALL,,, ASTIG KA PARE!!!

dropped D
intro:         guitarI
|-------------------------------------|
|-------------------------------------|
|-------------------------------------|
|-5-5-------5-5-------5-5-------5-5---|
|-5-5-------5-5-------5-5-------5-5---|
|-3-3-x-x-x-3-3-x-x-x-3-3-x-x-x-3-3---|

intro:         guitarII
|-3-3-x-x-x-3-3-x-x-x-3-3-x-x-x-3-3-x-x-|
|-3-3-x-x-x-3-3-x-x-x-3-3-x-x-x-3-3-x-x-|
|-5-5-x-x-x-5-5-x-x-x-5-5-x-x-x-5-5-x-x-|
|---------------------------------------|
|---------------------------------------|
|---------------------------------------|

|-----7h6--------7h6-----------|
|---------7----------7---------|
|------------------------------|
|------------------------------|
|------------------------------|
|------------------------------|

              do it fast,,,(as many times)
|------------------------------------------------------------|
|------------------------------------------------------------|
|------------------------------------------------------------|
|--------8-8-7-7-------8-8-7-7-------8-8-7-7-------8-8-7-7---|
|--9h10-----------9h10----------9h10----------9h10-----------|
|------------------------------------------------------------|

  verse;  guitarI               guitarII W/delay
|-------------------------  -------------------------------|
|-----------8h7--8h7--8h7-  -------------------------------|
|-9h10-9h10---------------  -------------------------------|
|-------------------------  -------------8h7--8h7--8h7-----|
|-------------------------  --9h10-9h10--------------------|
|-------------------------  -------------------------------|

chorus:     guitarI
|---------------------------|
|---------------------------|
|---------------------------|
|--5-----1-----5------1-----|
|--5-----1-----5------1-----|
|--3-----1-----5------1-----|

chorus:     guitarII
|------------------------------------------------------------|
|------------------------------------------------------------|
|------------------------------------------------------------|
|--------8-8-7-7-------8-8-7-7-------8-8-7-7-------8-8-7-7---|
|--9h10-----------9h10----------9h10----------9h10-----------|
|------------------------------------------------------------|
               <<<>>>
            

comments powered by Disqus
↑ Back to top | Chicosci Tabs for Gift Of Tongues. Lyrics for acoustic guitar and electric guitar. Tablatures and chords are parodies/interpretations of the original songs. You may use it for private study, scholarship, research or language learning purposes only