» » »

Chicosci, Anything For Two Tabs (ver.1)

Artists:  A B C D E F G H I J K L M N O P Q R S T U V W X Y Z # 

Anything For Two Tabs (ver.1)

Chicosci Tabs
Rating:
5/5 (2 votes)
Anything For Two lessons Tabs too difficult? Try these video lessons and learn fast
                Album:Method of Breathing
              09229015724(Sun Cell) 


Guitar:Legends:
/\ - SLIDE
.  - PALM MUTING
x  - DEAD STRING
h  - HAMMER-ON

Guitar Tuning:Drop D
 
Verse:
e|--------------      --------------|
B|-------------- 7x   --------------|
G|-------------- Then --------------| 
D|-444-444-5-1--      -111-222-00---|
A|-222-444-5-1--      -111-222-00---|
D|-----444-5-1--      -111-222-00---|
                               
Pre-Chorus:
e|-----------------------------------|
B|-----------------------------------|
G|-----------------------------------| 4x
D|-----------------------------------|
A|-0-1-2-0-1h2-0-1h2-0-1h2-0-1-2-1---|
D|-0-1-2-0-1h2-0-1h2-0-1h2-0-1-2-1---|

Chorus:
e|-------------|
B|-------------|
G|-8-8-8-8\7---|
D|-x-x-x-x-x---|
A|-6-6-6-6\5---|
D|-------------|
   . . . 

Repeat Verse,Pre-Chorus and Chorus:

Bridge:
Gtr.1:
e|---------------|
B|---------------|
G|---------------|
D|-66666-55555---|
A|-66666-55555---|
D|-66666-55555---|
   ..... .....

Gtr.2:
e|--------------------------------------------------------------|
B|-----4-----4-----4-----4-----4---0-2-4--0-2-4--0-2-4--0-2-4---|
G|-5-5---5-5---5-5---5-5---5-5----------------------------------|
D|--------------------------------------------------------------|
A|--------------------------------------------------------------|
D|--------------------------------------------------------------|
   . . . . . . . . . . . . . . .   . . .  . . .  . . .  . . .

Repeat Chorus and Verse:

Outro:
e|-------------P------------P---|
B|-------------A------------A---|
G|-------------U------------U---| 2x
D|-111-222-00--S-111-222-0--S---|
A|-111-222-00--E-111-222-0--E---|
D|-111-222-00--D-111-222-0--D---|
            .            .

End...
 
  I would like to greet first offcourse my ONLY ONLY ONE,then;my relatives,my
friends on Montalban(Brgy.Balite Espiritu Subd.),My traitor friends in our school
NSDAPS San Mateo Rizal,Cocklosas,Cocklisay.Cocktabijan,Cockpistrano,Cockyatano,Cockruz,
Franciscock,Picock,f**kmittan,Redick,Simbulbulan,Frondosuso,Bayagin,Titesta,Aldick,and many
moore,our band club(COMBO-RATS),Project X,To all my txt mates and other companie,Red Porn Records,
My friends in YM and Friendster,and most of all,hi to God...Tnx for all the blessings...

Padre Garrote:          Extra:

Dino Testa:Vocals       Andrei Frondoso:Xylophone,Triangles,Flute and Tamborine           
Edy Capistrano:Gtr.1    Mike Alvez:Sub-Guitar                               
Jiro Uezono:Gtr.2      
Ryan Manongdo:Bass       
Aeroll Cayetano:Drums   
            
Submit corrections

comments powered by Disqus
↑ Back to top | Chicosci Tabs for Anything For Two. Lyrics for acoustic guitar and electric guitar. Tablatures and chords are parodies/interpretations of the original songs. You may use it for private study, scholarship, research or language learning purposes only