» » »

Chicosci, Amen Tabs (ver.1)

Artists:  A B C D E F G H I J K L M N O P Q R S T U V W X Y Z # 

Amen Tabs (ver.1)

Chicosci Tabs
Rating:
5/5 (1 vote)
Amen lessons Tabs too difficult? Try these video lessons and learn fast
                                       "AMEN" BY CHICOSCI

tuning: dropped D
intro:
             X8
D|-------------------------------------|
A|-------------------------------------|
F|-3h4--2h3--3h4h3--2h3----------------|
C|-------------------------------------|
G|-------------------------------------|
D|-------------------------------------|

             X8
D|-------------------------------------|
A|-------------------------------------|
F|-------------------------------------|
C|-4/5--3/4--4/5/4--3/4----------------|
G|-2/3--1/2--2/3/2--1/2----------------|
D|-------------------------------------|

 Look around, I have no name...   X8
D|-------------------------------------|
A|-------------------------------------|
F|-3h4--2h3--3h4h3--2h3----------------|
C|-------------------------------------|
G|-------------------------------------|
D|-------------------------------------|

The body as before, on hole in his head!
D|-------------------------------------|
A|-------------------------------------|
F|-------------------------------------|
C|--4-5-3----4-6-4---------------------|
G|--2-3-1----2-4-2---------------------|
D|-------------------------------------|
   
 Cool place...   X8
D|-------------------------------------|
A|-------------------------------------|
F|-------------------------------------|
C|--4-4-4/5----3/4---------------------|
G|--2-2-2/3----1/2---------------------|
D|-------------------------------------|

D|-------------------------------------|
A|-------------------------------------|
F|-------------------------------------|
C|--3-4-5---3-4-5---3-4-5---3-4-5------|
G|--1-2-3---1-2-3---1-2-3---1-2-3------|
D|-------------------------------------|

   I hate your law!
D|-------------------------------------|
A|-------------------------------------|
F|-------------------------------------|
C|--2-3-4---2-3-4--2-3-4--2-3-4--------|
G|--2-3-4---2-3-4--2-3-4--2-3-4--------|
D|-------------------------------------|
           <<<<>>>>
            
Submit corrections

comments powered by Disqus
↑ Back to top | Chicosci Tabs for Amen. Lyrics for acoustic guitar and electric guitar. Tablatures and chords are parodies/interpretations of the original songs. You may use it for private study, scholarship, research or language learning purposes only