» » »

A Habit Of Rest Brings Nothing Tabs (ver.1)

Artists:  A B C D E F G H I J K L M N O P Q R S T U V W X Y Z # 

A Habit Of Rest Brings Nothing Tabs (ver.1)

Chicosci
Rating:
0/5 (0 votes)

Hard to play? Try these video lessons and learn fast.
                BAND: Chico Sci.
AGE:18

LEGEND:

/ or \   - slide up or down
p        - pull off
h        - hammer on
p.m. --- - palm mute
b        - bend

Tuning: Tune guitar whole step down (DGCFAD) then drop d. 

Intro: 
gtr. 1
D --------------------
A -777777777777778888-
F -777777777777777777-
C -555555555555555555-
G --------------------
C --------------------
listen to the cd to figure
out the rhythm pattern

gtr.2
D ----------------------------------------
A ----------------------------------------
F --7777777777777777-5555555555555555-----
C -------------------3333333333333333-----
G --5555555555555555-3333333333333333-----
C -------------------3333333333333333-----

Verse:
D------------------------15151515--
A----------------------------------
F----------------------------------
C---32-0-32-0-32-0-32-0------------(8x)
G---32-0-32-0-32-0-32-0------------
C---32-0-32-0-32-0-32-0------------
p.m.-- - -- - -- - -- -

Chorus:
D ----------------------------------------
A ----------------------------------------
F --7777777777777777-5555555555555555-----
C -------------------3333333333333333-----(4x)
G --5555555555555555-3333333333333333-----
C -------------------3333333333333333-----

Interlude:
D ----------------
A -77777-7777777--
F -77777-7777777--(4x)
C -55555-5555555--
G ----------------

repeat verse, chorus & interlude

(2:20)
D --------1515--
A --------------
F --------------
C --33-33-------(16x)
G --33-33-------
C --33-33-------

repeat intro riff then chorus till end
_end_
            
Hard to play? Try these video lessons and learn fast. | Correct




comments powered by Disqus
↑ Back to top | Tablatures and chords are parodies/interpretations of the original songs. You may use it for private study, scholarship, research or language learning purposes only