>
 >
Spain

Spain Bass Tabs

Chick Corea - Spain chords, tabs, tablatures, lyrics

Guitar lessons | Add/correct | Request | Top 50 tabs Artists:  A B C D E F G H I J K L M N O P Q R S T U V W X Y Z 0-9

Spain Bass Tabs – Chick Corea

CD, Sheet music, Poster

Do you like Spain? Share with your friends now
Bass TabsTabs
Adrian Scholze guitar tab turn in bass
By MarkusBass

 A-Part
                     Em11      F#sus F#


                                   Em11      F#sus F#
g|---11----------------------------------------------|
d|-12--12-14-12---12-11--11-8-----19-19-19---11-11-11|
a|--------------14-----12-----9---14-14-14---14-14-13|
e|--------------------------------14-14-14---14-14-14|

B-part

    Gma7       F#7    Em7   A7    Dma7 Gma7    C#7   F#7 Bm    B7

g|--------6-7-9-7-6----------6-7-9-7-9--11--9-7-6-7-9-7-6-4h6-4/8~~|
d|-----7-9----------------7-9--------------------------------------|
a|-9-10---------------9-10-----------------------------------------|
e|-----------------------------------------------------------------|


C-Part

g|--9-12/11--7-9--7\6--------7-9-9-12/11----7-4-7-4-9-6-4---4-6---------------------
d|-9----------9--7----7-9-5-5----------------------------4-4---6/8-6-4--4-6-8\7-4---
a|--------------------------------------------------------7------------4-4-4--------
e|----------------------------------------------------------------------------------



g|-11-11-9--7-4~~----|
d|-------------------|
a|-------------------|
e|-------------------|


A-Part
B-part
C-part

D-part

   Gma7         F#7      Em7 A7          Dma7 Gma7    C#7    F#7  Bm   B7

g|------6-7-6---7-6-----11-9-7-------6-7-9-7-9-11------9-7-6-7-9--7-6-6\4--8-9-11|
d|-9~~-9------9----8~~--------9---7-9--------------------------------------------|
a|-------------------------------------------------------------------------------|
e|-------------------------------------------------------------------------------|


    
    Em7   A7    Dma7  Gma7   C#7 F#7 Bm      B7
e|-------------------------------------------------|
b|----------------------7--------------------------|
g|---------6-7-9-7-9------9-7-6-7-9-7-6-4h6\4-/8---|
d|-----7-9-----------------------------------------|
a|-9-10--------------------------------------------|
e|-------------------------------------------------|



    
    Em7   A7    Dma7  Gma7   C#7 F#7 Bm      B7

g|---------6-7-9-7-9-----11-9-7-6-7-9-7-6-4h6\4-/8---|
d|-----7-9-------------------------------------------|
a|-9-10----------------------------------------------|
e|---------------------------------------------------|

C-part

Impro-Part

| Gma7 |  Gma7  |  F#   |  F#   | Em7  |   A7  |

| Dma7 |  Gma7  |  C#7  |  F#7  |  Bm  |   B7  |





Comments


Popular Chick Corea tabs & chords
La Fiesta Chords
Hymn Of The Seventh Galaxy Tabs
Sea Journey Tabs
Spain Tabs
La Fiesta Ukulele


Song lyrics



↑ Back to top | Tablatures and chords are parodies/interpretations of the original songs. You may use it for private study, scholarship, research or language learning purposes only
© 2014 AZChords.com Contact us | Privacy policy | DMCA | Add/correct tabs | Request tabs | Top 50 tabs