» » »

South California Purples Tabs (ver.1)

Artists:  A B C D E F G H I J K L M N O P Q R S T U V W X Y Z # 

South California Purples Tabs (ver.1)

Chicago
Rating:
4/5 (3 votes)

Hard to play? Try these video lessons and learn fast.
                
  Gtr I
|-------------------|-------------------|-------------------|-----------|
|-------------------|-------------------|-------------------|-----------|
|-------------------|-------------------|-------------------|-----------|
|-----------5-x-5---|---------5-x-5-----|-------5-x-5-------|-----5-x-5-|
|-----------3-x-3---|---------3-x-3-----|-------3-x-3-------|-----3-x-3-|
|-0-3-4-5-5-------0-|-3-4-5-5-------0-3-|-4-5-5-------0-3-4-|-5-5-------|


|-----------------|-----------------|-----------------|-----------------|
|-----------------|-----------------|-----------------|-----------------|
|-----------------|-----------------|-----------------|-----------------|
|-----------5-x-5-|-----------5-x-5-|-----------5-x-5-|-----------5-x-5-|
|-----------3-x-3-|-----------3-x-3-|-----------3-x-3-|-----------3-x-3-|
|-0-3-4-5-5-------|-0-3-4-5-5-------|-0-3-4-5-5-------|-0-3-4-5-5-------|


|-----------------|-----------------|-----------------|-----------------|
|-----------------|-----------------|-----------------|-----------------|
|-----------5-x-5-|-----------5-x-5-|-----------5-x-5-|-----------------|
|-----------3-x-3-|-----------3-x-3-|-----------3-x-3-|-----------5-x-5-|
|-0-3-4-5-5-------|-0-3-4-5-5-------|-0-3-4-5-5-------|-----------3-x-3-|
|-----------------|-----------------|-----------------|-0-3-4-5-5-------|


|-----------------|--------------------------------------------|
|-----------------|--------------------------------------------|
|-----------------|--------------------------------------------|
|-----------5-x-5-|-----------5-x-5-------------------5-x-5----|
|-----------3-x-3-|-----------3-x-3--0-3-4-5-/8-7-6-5-3-x-3----|
|-0-3-4-5-5-------|-0-3-4-5-5----------------------------------|


just repeat that throughout the whole song. I'll try and tab out the solo later. Terry Kath ROCKS!
            
Hard to play? Try these video lessons and learn fast. | Correct




comments powered by Disqus
↑ Back to top | Tablatures and chords are parodies/interpretations of the original songs. You may use it for private study, scholarship, research or language learning purposes only