» » »

Chicago, Poem 5 Tabs (ver.1)

Artists:  A B C D E F G H I J K L M N O P Q R S T U V W X Y Z # 

Poem 5 Tabs (ver.1)

Chicago Tabs
Rating:
4/5 (2 votes)
Poem 5 lessons Tabs too difficult? Try these video lessons and learn fast
                "(8)
(Intro)
-------------------------------------------------------------------------------
                          Poem 58 - Chicago
-------------------------------------------------------------------------------

Tuning: EADGBe

I haven't been able to find any other tabs of this song, not even of the
chords. So here's the intro for now.

 Riff A
e|---------------------------------------------------------------------------|
B|--5--xx--5--xx--8---8---x--8--x--7-----------------------------------------|
G|--5--xx--5--xx--9---9---x--9--x--7-----------------------------------------|
D|--5--xx--5--xx--7---7---x--7--x--7-----------------------------------------|
A|---------------------------------------------------------------------------|
E|--5------5------8---8------8-----7-----------------------------------------|

 Riff B
e|---------------------------------------------------------------------------|
B|--5--xx--5--xx--8--8--8---x--7--7------------------------------------------|
G|--5--xx--5--xx--9--9--9---x--7--7------------------------------------------|
D|--5--xx--5--xx--7--7--7---x--7--7------------------------------------------|
A|---------------------------------------------------------------------------|
E|--5------5------8--8--8------7--7------------------------------------------|

 Riff C
e|---------------------------------------------------------------------------|
B|--5--xx--5--xx--8--8--8---7-7-7--------------------------------------------|
G|--5--xx--5--xx--8--9--9---7-7-7--------------------------------------------|
D|--5--xx--5--xx--7--7--7---7-7-7--------------------------------------------|
A|---------------------------------------------------------------------------|
E|--5------5------8--8--8---7-7-7--------------------------------------------|

 Riff D                                           Second Time Only
e|------------------------------------------------|--------------------------|
B|--xx--8-10--x--8-10--x--8-10--x--8-10--x--8-10\-|--5~----------------------|
G|--xx--8-10--x--8-10--x--8-10--x--8-10--x--8-10\-|--5~----------------------|
D|--xx--------x--------x--------x--------x--------|--5~----------------------|
A|------------------------------------------------|--------------------------|
E|------------------------------------------------|--5~----------------------|

Here's how the riffs are ordered:

Riff A 4x
Riff B 1x
Riff A 3x
Riff D 1x
Riff A 6x
Riff C 1x
Riff A 1x
Riff D 1x


Then there's a lot of soloing after that, which I might add in later.


************************************

| /   slide up
| \   slide down
| h   hammer-on
| p   pull-off
| ~   vibrato
| +   harmonic
| x   Mute note
| b   Bend
| pb  Pre-bend
| br  Bend release
| pbr Pre-bend release
| brb Bend release bend

************************************
"            

comments powered by Disqus
↑ Back to top | Chicago Tabs for Poem 5. Lyrics for acoustic guitar and electric guitar. Tablatures and chords are parodies/interpretations of the original songs. You may use it for private study, scholarship, research or language learning purposes only