» » »

Chicago, Make Me Smile Bass tabs (ver.1)

Artists:  A B C D E F G H I J K L M N O P Q R S T U V W X Y Z # 

Make Me Smile Bass tabs (ver.1)

Chicago Tabs
 Rating:
4/5 (4 votes)
Make Me Smile lessons Tabs too difficult? Try these video lessons and learn fast
                |Key|
r  = rest
x  = dead note
T  = thump/thumb
.  = pluck

|   e  e  e  s  s  e  e  e  s  s  e  e  e  s  s  e  e  e  s  s                   
G -------------------------------------------------------------------------------
D -------------------------------------------------------------------------------
A --3--3-----------3--3-----3--------------------------------3-------------------
E -----------3--3--------------6--4--4-----4--4--4--4-----4----------------------
         r              r              r              r                         

|   e  e  e  s  s  e  e  e  s  s  e  e  e  s  s  e  e  e  s  s                   
G -----------------------------------------------------------------------------||
D ----------------------------------------------------------------------------.||
A --6--6-----------6--6-----6--6--5--5-----5--5-------------------------------.||
E -----------6--6--------------------------------3--3-----3--3-----------------||
         r              r              r              r                         

|   e  e  e  s  s  e  e  e  s  s  e  e  e  s  s  e  e  e  s  s                   
G -------------------------------------------------------------------------------
D -------------------------------------------------------------------------------
A --3--3-----3--3-----------------6--6-----6--6----------------------------------
E -----------------6--6-----6--6-----------------4--4-----4--4-------------------
         r              r              r              r                         

|   e  e  e  s  s  e  e  e  s  s  e  e  e  s  s  e  e  e  s  s
G -------------------------------------------------------------------------------
D -------------------------------------------------------------------------------
A --5--5-----5--5--5--5-----5--5-------------------------------------------------
E --------------------------------3--3-----3--3--3--3-----3--3-------------------
         r              r              r              r

|     e  e  e  s  s  e  e  e  s  s  e  e  e  s  s  e  e  e  s  s        Repeat 4x
G ||---------------------------------------------------------------------------||
D ||.-------------------------------------------------------------------------.||
A ||.-6--6-----------6--6-----6--6--5--5-----5--5-----------------------------.||
E ||-----------6--6--------------------------------3--3-----3--3---------------||
           r              r              r              r

|   e  e  e  s  s  e  e  e  s  s  e  e  e  s  s  e  e  e  s  s
G -------------------------------------------------------------  Go back to top
D -------------------------------------------------------------  once and then 
A -------------------------------------------------------------  play thru this
E --6--6-----6--6--6--6-----6--6--3--3-----3--3--3--3-----3--3-
         r              r              r              r

I don't know what to play for this part...
Just listen and then play this next part:

|     e  e  e  s  s  e  e  e  s  s  e  e  e  s  s  e  e  e  s  s        Repeat 4x
G ||---------------------------------------------------------------------------||
D ||.-------------------------------------------------------------------------.||
A ||.-6--6-----------6--6-----6--6--5--5-----5--5-----------------------------.||
E ||-----------6--6--------------------------------3--3-----3--3---------------||
           r              r              r              r

Drum Solo (don't play)

If you want, you can play this for the end:

|   e  e  e  e  e q.
G --------x--x--------||
D --------------------||
A --------------------||
E --x--x--------x-----||
   T  T  .  .  T  r

Created with Fast Tab, by E. Thioux
            
Submit corrections

comments powered by Disqus
↑ Back to top | Chicago Bass for Make Me Smile. Lyrics for acoustic guitar and electric guitar. Tablatures and chords are parodies/interpretations of the original songs. You may use it for private study, scholarship, research or language learning purposes only