>
 >
Feelin' Stronger Every Day

Feelin' Stronger Every Day Bass Tabs

Chicago - Feelin' Stronger Every Day chords, tabs, tablatures, lyrics

Guitar lessons | Add/correct | Request | Top 50 tabs Artists:  A B C D E F G H I J K L M N O P Q R S T U V W X Y Z 0-9

Feelin' Stronger Every Day Bass Tabs – Chicago

CD, Sheet music, Poster

Do you like Feelin' Stronger Every Day? Share with your friends now
Bass TabsChordsTabs
Chicago:  Feelin’ Stronger Every Day


G|------------------------------------|------------------------------------------------|
D|-0----------------------------------|-0----------------------------------------------|
A|--0-----------------3---------------|--0-----------------3---------------013~~-------|
E|---3--3-3333-33--345---1-1-1111-111-|---3--3-3333-33—345---1-1-1111-11-13------------|
          ....               ....              ....              ....
    
G|---------------------------------------------|-----------------------------------------|
D|---------11-1---------3~~-333-------3~~-33333|---------11-1---------3~~--------3~~-----|
A|-33-333-3----11-1-1/5---------1-1/5----------|-33-333-3----11-1-1/5------1-1/5---------|
E|---------------------------------------------|-----------------------------------------|

G|----------------------------|-----------------|----------------------------------------|
D|---------00-000-0000--------|-0---------------|---------11-1---------3~~-------3333333-|
A|-00-000-0------------00-000-|--0--------------|-33-333-3----11-1-1/5-----1-1/5---------|
E|----------------------------|---3—33-333--345-|----------------------------------------|
                  ....

G|------------------------------------------|----------------------------------|
D|---------11-1---------3-33333------3-33333|------------00-0000-0000----------|
A|-33-333-3----11-1-1/5----------1/5--------|-00-0-000-0--------------00-0-000-|
E|------------------------------------------|----------------------------------|
                                                                 ....

G|-------------------------------------------------------------------|
D|-0-----------------------------0-----------------------------------|
A|--0-------------3---------------0-------------3-------------013~~--|
E|---3-333-333—345---1-1-11-111----3-33-333--345---1-11-11--13-------|

G|------------------------------|
D|------------------------------|
A|-------------55---------------|
E|-1/5-3~~--1/5----1/5-3~~--1/5-|

G|--------------------------------------------------------------------------------------|
D|--------------------------22222222------4444---------------------22222222------4444---|
A|-000000000000000000000000----------2222------5555-44-22-00000000----------2222--------|
E|--------------------------------------------------------------------------------------|

G|-----------------|
D|-----------------|
A|-5555555555555---|
E|-----------------|
  *Listen to song to find out the timing for this part

G|--------------------------------|
D|-----------22222222-------------|    X A LOT
A|--00000000----------22222222----|      -Play to the end of the song
E|--------------------------------|
  *Listen to song to find out the timing for this part


~ let ring
.. stacato

This is my very first tab.. it took me a few weeks to learn this song.
I would say that my tab is about 95% correct.
-Thanks, Scott





Comments


Popular Chicago tabs & chords
Make Me Smile Bass Tabs
Dialogue Part I And Ii Chords
Hard To Say I'm Sorry Chords
I'm A Man Chords
Make Me Smile Chords
Old Days Chords
What Kind Of Man Would I Be? Chords
Beginnings 1 Tabs
Byblos Tabs
Look Away Tabs


Song lyrics



↑ Back to top | Tablatures and chords are parodies/interpretations of the original songs. You may use it for private study, scholarship, research or language learning purposes only
© 2014 AZChords.com Contact us | Privacy policy | DMCA | Add/correct tabs | Request tabs | Top 50 tabs