» » »

Caravan Tabs (ver.1)

Artists:  A B C D E F G H I J K L M N O P Q R S T U V W X Y Z # 

Caravan Tabs (ver.1)

Chicago
Rating:
0/5 (0 votes)

Hard to play? Try these video lessons and learn fast.
                #---------------------------------YOU BEST NOTE-------------------------------#

Chicago



Intro :
e--------------------------------------------------------------------|
b--5---3----5vvvvvv----5---3---5vvvvv--------------------------------|
g-----------------------------------------5--------------------------|
d--------------------------------------------------------------------|
a--3---1----3vvvvvv----3---1---3vvvvv--3-----3\----------------------|
e--------------------------------------------------------------------|

Main Verse :
e------------------------------|
b------------------------------|
g------------------------------|
d-----------------------0------|
a-----1--3v------1---3-----3p1-|
e--3----------3----------------|

Solo Fills :				     AH----|
e--------------------------------------------------------|
b------------------------------------------------10------|
g--0--4--5v---0--4--5vvb1/2r5----10---10b-10-----10------|
d--------------------------------10-8---------8----------|
a--------------------------------------------------------|
e--------------------------------------------------------|
							      AH----|
e--11p10p8-11p10p8------------------------13bvvvv-13p11--8------------|
b-------------------13-12----10----------------------------11-10--10--|
g-------------------------12-----8--------------------------------10--|
d-----------------------------------10\-------------------------------|
a---------------------------------------------------------------------|
e---------------------------------------------------------------------|


e-8-------------------------------------------------------|
b---11-8-11vvv--8-----8-----------------------------------|
g-----------------10v---10-8-10vvvvv--8-------10--8-----8-|
d---------------------------------------10vv---------10---|
a---------------------------------------------------------|
e---------------------------------------------------------|
	    trem pick
e--------------------------------------------------------|
b--------------------------------------------------------|
g--------------------------------------------------------|
d-10--8--------------------------------------------------|
a--------10--8-8-8-8-8-8-8-8-8-8-8-8-8-8-8-8-8-8-8-8-8-8-|
e--------------------------------------------------------|
            
Hard to play? Try these video lessons and learn fast. | Correct




comments powered by Disqus
↑ Back to top | Tablatures and chords are parodies/interpretations of the original songs. You may use it for private study, scholarship, research or language learning purposes only