>
 >
25 Or 6 To 4 (Solo)

25 Or 6 To 4 (Solo) Guitar Tabs

Chicago - 25 Or 6 To 4 (Solo) chords, tabs, tablatures, lyrics

Guitar lessons | Add/correct | Request | Top 50 tabs Artists:  A B C D E F G H I J K L M N O P Q R S T U V W X Y Z 0-9

25 Or 6 To 4 (Solo) Guitar Tabs – Chicago

CD, Sheet music, Poster

Do you like 25 Or 6 To 4 (Solo)? Share with your friends now
Tabs
Believe it or not! Heres the solo, it was very hard but, i think I shlould share it.

Here you go!

Band: Chicago
dont have it, i could have it)

This part goes in when singing  sitting cross legged on the floor  and 
 should I try to do some more 


|--------12------------11------------10---------8--8--x----|
|-----------------------------------------------------x----|
|--12----------12/-11------11/---10------10/-9--9--9--x----|
|----------------------------------------------------------|
|----------------------------------------------------------|
|----------------------------------------------------------|

Then the HEROIC WAH-WAH SOLO!!!

  1:58
|-------------------------------------------
|-------------------------------------------
|-------------------------------------------
|-----------------------------------5----7--
|-------------------------5----7------------
|--------5----7----8------------------------


                                                                      
-------------------------------------------------------------------
-------------------5------6----10----9----10----10/-------5~-------
----4----5----7----------------------------------------------------
-------------------------------------------------------------------
-------------------------------------------------------------------
-------------------------------------------------------------------


                                                                 
-------------------------------------------------------
-------------------------------------------------------
--10/5~---------9/4~-----------------------------------
-------------------------------------------10/6~-------
-------------------------------------------------------
-------------------------------------------------------


                                                         
-------------------------------------------------------
----------------------------5----5-7--5-7-8--7-8-10----
--------5--4--5h-7--5--7-------7-----------------------
--7--7-------------------------------------------------
-------------------------------------------------------
-------------------------------------------------------


                                                                       
---------------------------------------------------------------------
--10h8-8h7-7h5-------------------------------------------------8-10--
---------------7h5-4h5h4-------------------------------5-7/9-9-------
-------------------------7-5---------5---------------7---------------
-----------------------------7-5/7-----7-5/3---3-5/7-----------------
---------------------------------------------5-----------------------


                                                                        
--------------------10--12--12--12h10---8h10h8-7h8h7------------------
--10h8-10h8---8-10-----------------------------------10h8-7--8--7--8b-
------------9---------------------------------------------------------
----------------------------------------------------------------------
----------------------------------------------------------------------
----------------------------------------------------------------------


                                                                        
---------------------------------------------------------------------
--7--8--5--7---------------------------------------------------------
--------------7b-7--5--7----4--5--5b-5--7b---------7~-----------7b---
---------------------------------------------------------------------
---------------------------------------------------------------------
---------------------------------------------------------------------


                                                                               
-------------------------------------------------------------5--------5-----
-----------------------------------------5-------8b---8b-8h5---5----5---8h5-
--7b-------7b---7b-----7b---7r--5---5-8-----8--------------------7b---------
----------------------------------7-----------------------------------------
----------------------------------------------------------------------------
----------------------------------------------------------------------------


                                                                 
---------------------------------------------------------------
---------------------------------------------------------------
--7r-5---5h7h5-----------------------------------------5h4-5h4-
-------7-------7-5---------------------------------5-7---------
-------------------7-5/6----3------2h3h2-----3-5/7-------------
-------------------------5---------------5-5-------------------


                                                                 
---------------------------------------------------------------
---------------------------------------------------------------
---------4h5h4h5h4h5h4h5h4h5---5h7h5h7h5h7h5h7-7h9h7h9h7h9h7h9-
--7------------------------------------------------------------
---------------------------------------------------------------
---------------------------------------------------------------


                                                                           
-----------------------------8--10----12----10--8--10--7--8--7-----------
--8b---8--7--8--7--5--8--10-------------------------------------8--7--8--
-------------------------------------------------------------------------
-------------------------------------------------------------------------
-------------------------------------------------------------------------
-------------------------------------------------------------------------


                                                             
--------------------------------------------------------8b-
--8----7h5h7h5--------------------------8-10-10--8--10-----
---------------7r---7h5h7h5-------5-7/9--------------------
------------------------------7----------------------------
-----------------------------------------------------------
-----------------------------------------------------------


                                                     
----8--8b-8--8b-8--8b-8----8b-8--8b-8--------------
---------------------------------------10------10b-
---------------------------------------------------
---------------------------------------------------
---------------------------------------------------
---------------------------------------------------


                                                               
-------------------------------------------------------------
----10b-10b-10b-10b-10b-10--10b---10b-10b-10--8--------------
----------------------------------------------------5--7b-5--
-------------------------------------------------7-----------
-------------------------------------------------------------
-------------------------------------------------------------


                                                                              
---------------------------------------------------------------------------
---------------------------------------8--10--8----10~---10~---10~---10~---
--7b---7b---7b---7b-----7b---7b-7h5-9--------------------------------------
---------------------------------------------------------------------------
---------------------------------------------------------------------------
---------------------------------------------------------------------------

                                                          
--------------------------------------------------------
--10b---10b---10b---10b-----10b-10--10b-10--10b---10b---
--------------------------------------------------------
--------------------------------------------------------
--------------------------------------------------------
--------------------------------------------------------


                                                                    
------------------------------------------------------------------
--8h10h8h10h8h10h8h10-7h8h7h8h7h8h7h8---5h7h5h7h5h7h5h7-----------
--------------------------------------------------------7----7----
------------------------------------------------------------------
------------------------------------------------------------------
------------------------------------------------------------------


                                                       
-----------------------------------------------------
-----------------------------------------------------
--5h7h5h7h5h7h5h7-7----7b--------5--5-----7--7--7b---
------------------------------7--------7-------------
-----------------------------------------------------
-----------------------------------------------------


                                                                            
-------------------------------------------------------------------------
--------------8--8--8b----------------8b-8b-8--8r-------10b---10b--------
-----5--5-----------------------------------------------------------x----
--5--------7---------------5--x--5---------------------------------------
-------------------------------------------------------------------------
-------------------------------------------------------------------------


                                                                
------17------------------------------------------------------
--17------20--20b-20b---20b-----20b-20--20b-20--20b---20r--17-
--------------------------------------------------------------
--------------------------------------------------------------
--------------------------------------------------------------
--------------------------------------------------------------


                                                                          
-----------------------------------------------------------------------
--20----------20------------20----------20------------x----------------
--------19b---------19b-----------19b---------19b----------------------
-----------------------------------------------------------------------
-----------------------------------------------------------------------
-----------------------------------------------------------------------

                                                                   
----------------------------------------------------------------
----------------------------------------------------------------
--------------5-----------5---------5-----------5---------5-----
----------------7-----------7---------7-----------7---------7---
----------------------------------------------------------------
----------------------------------------------------------------


                                                                     
------------------------------------------------------------------
------------------------------------------------------------------
------5---------5-----------5---------5-----------5---------5-----
--------7---------7-----------7---------7-----------7---------7---
------------------------------------------------------------------
------------------------------------------------------------------


                 3:28                                                              
----------------------|
----------------------|
------5---------5-----|
--------7---------7---|
----------------------|
----------------------|

WOW! 2:20 solo length!!!!!





Comments


Popular Chicago tabs & chords
Harry Truman Bass Tabs
Colour My World Chords
Does Anybody Know Chords
King Of Might Have Been Chords
Beginnings 1 Tabs
Look Away Tabs
25 Or 6 To 4 Ukulele
Goodbye Ukulele
Stay The Night Ukulele
Wishin You Were Here Ukulele


Song lyrics



↑ Back to top | Tablatures and chords are parodies/interpretations of the original songs. You may use it for private study, scholarship, research or language learning purposes only
© 2014 AZChords.com Contact us | Privacy policy | DMCA | Add/correct tabs | Request tabs | Top 50 tabs