» » »

Chic, Le Freak Tabs (ver.4)

Artists:  A B C D E F G H I J K L M N O P Q R S T U V W X Y Z # 

Le Freak Tabs (ver.4)

Chic Tabs
Rating:
0/5 (0 votes)
Le Freak lessons Tabs too difficult? Try these video lessons and learn fast
                Verse/Intro/Chorus: || Am7 | D7 C ||

Long Jam: || Am7 | D ||

        Am7                 D7         C
e|-------------------------------------------|
B|---------------55---5---7-x-7-x-7--5-x-5-x-|
G|-5-7-x-7-x-5h7-55-7-5-7-7-x-7-x-7--5-x-5-x-|
D|-5-7-x-7-x-5h7----7---7--------------------|
A|-------------------------------------------|
E|-------------------------------------------|

If you wanna improvise in the long jam,
I would recommend a scale such as the Dorian scale in Am - It suits the Am7 and D chord 
It has all the important tones that Am7 and D has.
- A B C D E F# G A -
e|-------------------------------5-7-8---|
B|-------------------------5-7-8---------|
G|-------------------4-5-7---------------|
D|-------------4-5-7---------------------|
A|---------5-7---------------------------|
E|---5-7-8-------------------------------|
            
Submit corrections

comments powered by Disqus
↑ Back to top | Chic Tabs for Le Freak. Lyrics for acoustic guitar and electric guitar. Tablatures and chords are parodies/interpretations of the original songs. You may use it for private study, scholarship, research or language learning purposes only