>
 >
Good Times 5

Good Times 5 Bass Tabs

Chic - Good Times 5 chords, tabs, tablatures, lyrics

Guitar lessons | Add/correct | Request | Top 50 tabs Artists:  A B C D E F G H I J K L M N O P Q R S T U V W X Y Z 0-9

Good Times 5 Bass Tabs – Chic

CD, Sheet music, Poster

Do you like Good Times 5? Share with your friends now
Bass TabsBass Tabs v2Bass Tabs v3Bass Tabs v4Bass Tabs v5ChordsTabsTabs v2



INTRO 
G|------------------------------------------------------------------------------|
D|--------------------------------0-2---------------------4---5-4---------------|
A|-------------------------0-2-4------0---0---0----0---0----0--------0---0------|
E|--0---0---0----0--0-2-3---------------------------------------------------33-2|

G|------------------------------------------------------------------------------|
D|-------------------------------0-2---------------------4----5-4---------------|
A|------------------------0-2-4------0---0---0----0---0----0--------0---0-------|
E|--0---0---0----0--0-2-3-------------------------------------------------33-3p2|

G|--------------------------------------------------------------------------------|
D|-------------------------------0-2--------------------4-----5--4----------------|
A|------------------------0-2-4------0---0---0----0---0----0--------0---00--------|
E|--0---0---0----0--0-2-3--------------------------------------------------------3|

G|---------------------------------------------------------------------------------|
D|---------------------------------0-2--------------------4-----5-4------2---------|
A|--------------------------0-2-4------0---0---0----0---0----0--------0------------|
E|--0---0---0----0--0-2-3------------------------------------------------------55-3|

G|-----------------------------------------------------------------------------------|
D|---------------------------------0-2---------------------4-----5--4----------------|
A|--------------------------0-2-4------0---0---0----0---0----0--------0---0----------|
E|--0---0---0----0--0-2-3--------------------------------------------------------33-2|

G|------------------------------------------------------------------------------------|
D|-----------------------------------0-2---------------------4-----5-4----------------|
A|----------------------------0-2-4------0---0---0----0---0----0--------0---0---------|
E|--0---0---0----0--0-2-3---------------------------------------------------------33-2|


VERSE ONE
X3
G|---------------------------------------------------------------------------------|
D|--------------2------------------------------------------------------------------|
A|-----------------------------------------------------------------------------5h7-|
E|0---0---0---0---00-0-0---0---0---3-5---5---5---5---5---3-5---5---5---5---55------|

G|--------------------------------------------------------------------------------|
D|--------------2--------------------------------------------------------------7--|
A|--------------------------------------------------------------------------------|
E|0---0---0---0---00-0-0---00---3-33-5---5---5---5---5--3-5---5---5---5---5------\|


CHORUS
G|-----------------------------------------------------------------------------------|
D|-------------------------------0-2---------------------4-----5--4------------------|
A|-------------------------0-2-4------0---0---0----0---0----0--------0---0-----------|
E|--0---0---0----0--0-2-3--------------------------------------------------------33-2|

G|-------------------------------------------------------------------------------------|
D|---------------------------------0-2--------------------4-----5--4-------------------|
A|--------------------------0-2-4------0---0---0----0---0----0--------0---0------------|
E|--0---0---0----0--0-2-3--------------------------------------------------------33-3p2|

G|----------------------------------------------------------------------------------|
D|----------------------------------0-2--------------------4-----5--4---------------|
A|---------------------------0-2-4------0---0---0----0---0----0--------0---00-------|
E|--0---0---0--/\--0--0-2-3--------------------------------------------------------3|

G|------------------------------------------------------------------------------------|
D|------------------------------------0-2--------------------4-----5-4----------------|
A|----------------------------0-2-4------0---0---0----0---0----0--------0---0---------|
E|--0---0---0----0--0-2-3---------------------------------------------------------33-2|


VERSE TWO
G|--------------------------------------------------------------------------------|
D|--------------2----------------------------------------------------------7------|
A|----------------------------------------------------------------------------5h7-|
E|0---0---0---0---00-0-0---0---0---3-5---5---5---5---3-5---5---3-5-----5----------|

G|--------------------------------------------------------------------------------|
D|--------------2-----------------------------------------------------------------|
A|-----------------------------------------------------------------------------5h7|
E|0---0---0---0---00-0-0---0---0---33-5----5---5---5---3-5---5---3-5-----55-------|

G|---------------------------------------------------------------------------------|
D|--------------2-----------------------------------------------------------7------|
A|------------------------------------------------------------------------------5h7|
E|0---0---0---0---00-0-0---0---0---3-5---5---5---5---3-5---5---3-5-----5-----------|

G|-----------------------------------------------------------------------|
D|--------------2--------------------------------------------------------|
A|-----------------------------------------------------------------------|
E|0---0---0---0---00-0-0---0---0---3-5----5---5---5---3-5---5--5--5--5-/\|


REPEAT CHORUS


MIDDLE EIGHT
G|------------------------------------------------------------------------------------|
D|--------------------------------0-2---------------------4-----5--4------------------|
A|-------------------------0-2-4------0---0---0----0---0----0--------0---0------------|
E|--0---0---0----0--0-2-3--------------------------------------------------------33-22|

G|-------------------------------------------------------------------------------------|
D|---------------------------------0-2--------------------4-----5--4-------------------|
A|--------------------------0-2-4------0---0---0----0---0----0--------0---0------------|
E|--0---0---0----0--0-2-3--------------------------------------------------------33-3p2|

G|----------------------------------------------------------------------------------|
D|--------------------------------0-2--------------------4-----5--4-----------------|
A|-------------------------0-2-4------0---0---0----0---0----0--------0---00---------|
E|--0---0---0----0--0-2-3---------------------------------------------------------33|

G|------------------------------------------------------------------------------------|
D|--------------------------------0-2--------------------4-----5-4--------2-----------|
A|-------------------------0-2-4------0---0---0----0---0----0--------0----------------|
E|--0---0---0----0--0-2-3------------------------------------------------------55-33--|

G|------------------------------------------------------------------------------------|
D|--------------------------------0-2--------------------4-----5--4-------------------|
A|-------------------------0-2-4------0---0---0----0---0----0--------0---0------------|
E|--0---0---0----0--0-2-3--------------------------------------------------------33-22|

G|----------------------------------------------------------------------------------|
D|----------------------------------0-2---------------------4----5--4---------------|
A|---------------------------0-2-4------0---0---0----0---0----0--------0---0--------|
E|--0---0---0--/\--0--0-2-3-----------------------------------------------------33-2|

G|------------------------------------------------------------------------------------|
D|----------------------------------0-2---------------------4----5-4------------------|
A|----------------------------0-2-4------0---0---0----0---0----0--------0---0---------|
E|--0---0---0---0--0-2-3---------------------------------------------------------33-22|

G|----------------------------------------------------------------------------------|
D|-------------------------------0-2---------------------2-----5-4----2-------------|
A|-------------------------0-2-4------0---0---0----0---0----0--------0--------------|
E|--0---0---0-/\---0--0-2-3----------------------------------------------------55-33|


REPEAT UNTIL LAST VERSE 
G|-------------------------------------------------------------------------------------|
D|--------------------------------0-2---------------------4-----5-4--------------------|
A|-------------------------0-2-4------0---0---0----0---0----0--------0---0-------------|
E|--0---0---0----0--0-2-3---------------------------------------------------------33-22|


REPEAT VERSE TWO
REPEAT CHORUS UNTIL END

| /  slide up
| \  slide down
| h  hammer-on 
| p  pull-off 
| ~  vibrato 
| +  harmonic 
| x  Mute note





Comments


Popular Chic tabs & chords
Everybody Dance Bass Tabs
Good Times Bass Tabs
I Want Your Love 1 Bass Tabs
Le Freak Bass Tabs
Le Freak 3 Bass Tabs
Savoir Faire Bass Tabs
Good Times Chords
Good Times Tabs
Le Freak Tabs
Le Freak 2 Tabs


Song lyrics



↑ Back to top | Tablatures and chords are parodies/interpretations of the original songs. You may use it for private study, scholarship, research or language learning purposes only
© 2014 AZChords.com Contact us | Privacy policy | DMCA | Add/correct tabs | Request tabs | Top 50 tabs