» » »

Chic, Good Times Tabs (ver.1)

Artists:  A B C D E F G H I J K L M N O P Q R S T U V W X Y Z # 

Good Times Tabs (ver.1)

Chic Tabs
Rating:
5/5 (6 votes)
Good Times lessons Tabs too difficult? Try these video lessons and learn fast
                there's really only two different rythms you have to pick up for this song,
but they're not the easiest, I've tried showing timing on this tab by the
distances between the chords and the muted parts.
Just listen to the song now and you should be able to pick it up.  I recommend
you learn it quite slowly first though to make sure you can get the timing, then
speeding it up comes along faster as well and being able to play along with the
song.

|-7--x-x-7--x-x-7--x-x-x-7--x-x-
|-8--x-x-8--x-x-8--x-x-x-8--x-x-
|-7--x-x-7--x-x-7--x-x-x-7--x-x-
|-9--x-x-9--x-x-9--x-x-x-9--x-x-
|-7--x-x-7--x-x-7--x-x-x-7--x-x-
|-------------------------------

|-7---7---7---7---7---7---7--7--x-x-
|-10--10--10--10--10--10--10-10-x-x-
|-7---7---7---7---7---7---7--7--x-x-
|-9---9---9---9---9---9---9--9--x-x-
|-7---7---7---7---7---7---7--7--x-x-
|-----------------------------------

|-5--x-x-5--x-x-5--x-x-x-5--x-x-
|-5--x-x-5--x-x-5--x-x-x-5--x-x-
|-7--x-x-7--x-x-7--x-x-x-7--x-x-
|-7--x-x-7--x-x-7--x-x-x-7--x-x-
|-------------------------------
|-------------------------------

|-5--5--5--5--5--5--5-5-x-x-
|-7--7--7--7--7--7--7-7-x-x-
|-6--6--6--6--6--6--6-6-x-x-
|-7--7--7--7--7--7--7-7-x-x-
|---------------------------
|---------------------------


Lyrics

Good times, these are the good times
A new state of mind, these are the good times
Good times, these are the good times
Leave your cares behind, these are the good times

Happy days are here again
The time is right for makin' friends
Let's get together, how 'bout a quarter to ten
Come tomorrow, let's all do it again
Boys will be boys, better let them have their toys
Girls will be girls, cute poney tails and curls
Must put an end to this stress and strife
I think I want to live the sporting life

Good times, these are the good times
A new state of mind, these are the good times
Good times, these are the good times
Leave your cares behind, these are the good times

A rumour has it that it's getting late
Time marches on, just can't wait
The clock keeps turning, why hesitate
You silly fool, you can't change your fate
Let's cug the rug, a little jive and jitterbug
We want the best, we won't settle for less
Don't be a drag, participate
Clams on the half shell and rollerskates, rollerskates

Good times, these are the good times
A new state of mind, these are the good times
Good times, these are the good times
Leave your cares behind, these are the good times
            

comments powered by Disqus
↑ Back to top | Chic Tabs for Good Times. Lyrics for acoustic guitar and electric guitar. Tablatures and chords are parodies/interpretations of the original songs. You may use it for private study, scholarship, research or language learning purposes only