» » »

Grab Thy Hand Tabs (ver.3)

Artists:  A B C D E F G H I J K L M N O P Q R S T U V W X Y Z # 

Grab Thy Hand Tabs (ver.3)

Chevelle
Rating:
0/5 (0 votes)

Hard to play? Try these video lessons and learn fast.
                                                 GRAB THY HAND
                            As Recorded by Chevelle
                     (From the 2002 Album WONDER WHATS NEXT)
                             (c)2002 Epic Records.

Gtr I (B F# B E G# C#) - 'Pete Loeffler'

Intro
4/4
Gtr I
|---------------------------|-----------------------------|
|---------------------------|-----------------------------|
|---------------------------|-----------------------------|
|-------------------------0-|-----------------------------|
|---------------------------|--------------------xxxxxxxx-|
|-0-0--0-0--0-0--0-0--0h1---|-0-0--0-0--0-0--0-0—xxxxxxxx-|
|
|                             PM---------------|
|---------------------------|---------------------------|
|---------------------------|---------------------------|
|---------------------------|---------------------------|
|-------------------------0-|-------------------------0-|
|---------------------------|-0-0--0-0--0-0--0-0--------|
|-0-0--0-0--0-0--0-0--0h1---|-0-0--0-0--0-0--0-0--0h1---|
|
|---------------------------|---------------------------|
|---------------------------|---------------------------|
|---------------------------|---------------------------|
|-------------------------0-|-------------------------0-|
|-0-0--0-0--0-0--0-0--------|-0-0--0-0--0-0--0-0--------|
|-0-0--0-0--0-0--0-0--0h1---|-0-0--0-0--0-0--0-0--0h1---|
|
|---------------------------|---------------------------|
|---------------------------|---------------------------|
|---------------------------|---------------------------|
|-------------------------0-|-------------------------0-|
|-0-0--0-0--0-0--0-0--------|-0-0--0-0--0-0--0-0--------|
|-0-0--0-0--0-0--0-0--0h1---|-0-0--0-0--0-0--0-0--0h1---|
|
|-------------------------------|-------------------------------|
|-5-----5-----5-----5-----5h6-6-|-5-----5-----5-----5-----5h6-6-|
|---7-7---7-7---7-7---7-7-7h7-7-|---7-7---7-7---7-7---7-7-7h7-7-|
|-------------------------------|-------------------------------|
|-------------------------------|-------------------------------|
|-------------------------------|-------------------------------|
|
|-------------------------------|-------------------------------|
|-5-----5-----5-----5-----5h6-6-|-5-----5-----5-----5-----5h6-6-|
|---7-7---7-7---7-7---7-7-7h7-7-|---7-7---7-7---7-7---7-7-7h7-7-|
|-------------------------------|-------------------------------|
|-------------------------------|-------------------------------|
|-------------------------------|-------------------------------|

|--------------------|--------------------|--------------------|
|--------------------|--------------------|--------------------|
|--------------------|--------------------|--------------------|
|-8-0----------------|-8-0----------------|-8-0----------------|
|--------------------|--------------------|--------------------|
|-----0--0-0-0-0h1-0-|-----0--0-0-0-0h1-0-|-----0--0-0-0-0h1-0-|
|
|--------------------|
|--------------------|
|--------------------|
|-8-0----------------|
|--------------------|
|-----0--0-0-0-0h1-0-|

Verse I 
Gtr I
|--------------------|---------------------|--------------------|
|--------------------|---------------------|--------------------|
|--------------------|---------------------|--------------------|
|-8-0----------------|-8-0-----------------|-8-0----------------|
|--------------------|---------------------|--------------------|
|-----0--0-0-0-0h1-0-|-----0---0-0-0-0h1-0-|-----0--0-0-0-0h1-0-|
|
|--------------------|--------------------|--------------------|
|--------------------|--------------------|--------------------|
|--------------------|--------------------|--------------------|
|-8-0----------------|-8-0----------------|-8-0----------------|
|--------------------|--------------------|--------------------|
|-----0--0-0-0-0h1-0-|-----0--0-0-0-0h1-0-|-----0--0-0-0-0h1-0-|
|
|                                           PM---------------|
|--------------------|--------------------|------------------------------|
|--------------------|--------------------|------------------------------|
|--------------------|--------------------|------------------------------|
|-8-0----------------|-8-0----------------|------------------------------|
|--------------------|--------------------|-0-0--0-0--0-0--0-0--xxxxxxxx-|
|-----0--0-0-0-0h1-0-|-----0--0-0-0-0h1-0-|-0-0--0-0--0-0--0-0--xxxxxxxx-|
|
|
| PM---------------|             PM---------------|
|------------------------------|------------------------------|
|------------------------------|------------------------------|
|------------------------------|------------------------------|
|------------------------------|------------------------------|
|-0-0--0-0--0-0--0-0--xxxxxxxx-|-0-0--0-0--0-0--0-0--xxxxxxxx-|
|-0-0--0-0--0-0--0-0--xxxxxxxx-|-0-0--0-0--0-0--0-0--xxxxxxxx-|
|
| PM---------------|
|---------------------------|
|---------------------------|
|---------------------------|
|-------------------------0-|
|-0-0--0-0--0-0--0-0--------|
|-0-0--0-0--0-0--0-0--0h1---|

Chorus
Gtr I
|--------------------------------|--------------------------------|
|--------------------------------|--------------------------------|
|---------5----------3-------3/2-|---------5----------3-------3/2-|
|---------5----------3-------3/2-|---------5----------3-------3/2-|
|-0-0--0--3--0-0--0--1--0-0--1/0-|-0-0--0--3--0-0--0--1--0-0--1/0-|
|-0-0--0-----0-0--0-----0-0------|-0-0--0-----0-0--0-----0-0------|
|
|--------------------------------|------------------------------|
|--------------------------------|------------------------------|
|---------5----------3-------3/2-|------------------------------|
|---------5----------3-------3/2-|------------------------------|
|-0-0--0--3--0-0--0--1--0-0--1/0-|---------3----------1-------1-|
|-0-0--0-----0-0--0-----0-0------|-0-0--0-----0-0--0-----0-0----|

Verse 
Gtr I
|--------------------------|--------------------|--------------------|
|--------------------------|--------------------|--------------------|
|--------------------------|--------------------|--------------------|
|-3-(3)-3-(3)--3-(3)-3-(3)-|-8-0----------------|-8-0----------------|
|-3-(3)-3-(3)--3-(3)-3-(3)-|--------------------|--------------------|
|-3-(3)-3-(3)--3-(3)-3-(3)-|-----0--0-0-0-0h1-0-|-----0--0-0-0-0h1-0-|
|
|--------------------------|---------------------------|
|--------------------------|---------------------------|
|--------------------------|---------------------------|
|-3-(3)-3-(3)--3-(3)-3-(3)-|-------------------------0-|
|-3-(3)-3-(3)--3-(3)-3-(3)-|---------------------------|
|-3-(3)-3-(3)--3-(3)-3-(3)-|-0-0--0-0--0-0--0-0--0h1---|
|
|------------------------------|---------------------------|
|------------------------------|---------------------------|
|------------------------------|---------------------------|
|------------------------------|-------------------------0-|
|---------------------xxxxxxxx-|---------------------------|
|-0-0--0-0--0-0--0-0--xxxxxxxx-|-0-0--0-0--0-0--0-0--0h1---|
|
| PM---------------|
|---------------------------|---------------------------|
|---------------------------|---------------------------|
|---------------------------|---------------------------|
|-------------------------0-|-------------------------0-|
|-0-0--0-0--0-0--0-0--------|-0-0--0-0--0-0--0-0--------|
|-0-0--0-0--0-0--0-0--0h1---|-0-0--0-0--0-0--0-0--0h1---|
|
|---------------------------|---------------------------|
|---------------------------|---------------------------|
|---------------------------|---------------------------|
|-------------------------0-|-------------------------0-|
|-0-0--0-0--0-0--0-0--------|-0-0--0-0--0-0--0-0--------|
|-0-0--0-0--0-0--0-0--0h1---|-0-0--0-0--0-0--0-0--0h1---|
|
|---------------------------|
|---------------------------|
|---------------------------|
|-------------------------0-|
|-0-0--0-0--0-0--0-0--------|
|-0-0--0-0--0-0--0-0--0h1---|
|
|-------------------------------|-------------------------------|
|-5-----5-----5-----5-----5h6-6-|-5-----5-----5-----5-----5h6-6-|
|---7-7---7-7---7-7---7-7-7h7-7-|---7-7---7-7---7-7---7-7-7h7-7-|
|-------------------------------|-------------------------------|
|-------------------------------|-------------------------------|
|-------------------------------|-------------------------------|
|
|-------------------------------|-------------------------------|
|-5-----5-----5-----5-----5h6-6-|-5-----5-----5-----5-----5h6-6-|
|---7-7---7-7---7-7---7-7-7h7-7-|---7-7---7-7---7-7---7-7-7h7-7-|
|-------------------------------|-------------------------------|
|-------------------------------|-------------------------------|
|-------------------------------|-------------------------------|
|
|--------------------|--------------------|--------------------|
|--------------------|--------------------|--------------------|
|--------------------|--------------------|--------------------|
|-8-0----------------|-8-0----------------|-8-0----------------|
|--------------------|--------------------|--------------------|
|-----0--0-0-0-0h1-0-|-----0--0-0-0-0h1-0-|-----0--0-0-0-0h1-0-|
|
|-----|
|-----|
|-----|
|-8-0-|
|-----|
|-----|

Bridge II
Gtr I
|-------------------------------|-------------------------------|
|-------------------------------|-------------------------------|
|-------------------------------|-------------------------------|
|-------------------------------|-------------------------------|
|-0-0-----3----------5----------|---------3----------5------5h6-|
|-0-0--0-----0-0--0-----0-0-3h5-|-0-0--0-----0-0--0-----0-0-----|
|
|-------------------------------|-------------------------------|
|-------------------------------|-------------------------------|
|-------------------------------|-------------------------------|
|-------------------------------|-------------------------------|
|-0-0-----3----------5----------|---------3----------5------5h6-|
|-0-0--0-----0-0--0-----0-0-3h5-|-0-0--0-----0-0--0-----0-0-----|
|
|-------------------------------|-------------------------------|
|-------------------------------|-------------------------------|
|---------5----------7----------|---------5----------7------7h8-|
|---------5----------7----------|---------5----------7------7h8-|
|-0-0--0--3--0-0--0--5--0-0-3h5-|-0-0--0--3--0-0--0--5--0-0-5h6-|
|-0-0--0-----0-0--0-----0-0-3h5-|-0-0--0-----0-0--0-----0-0-----|
|
|-------------------------------|-------------------------------|
|-------------------------------|-------------------------------|
|---------5----------7----------|---------5----------7------7h8-|
|---------5----------7----------|---------5----------7------7h8-|
|-0-0--0--3--0-0--0--5--0-0-3h5-|-0-0--0--3--0-0--0--5--0-0-5h6-|
|-0-0--0-----0-0--0-----0-0-3h5-|-0-0--0-----0-0--0-----0-0-----|
|
|-------------------------------|-------------------------------|
|-------------------------------|-------------------------------|
|---------5----------7----------|---------5----------7------7h8-|
|---------5----------7----------|---------5----------7------7h8-|
|-0-0--0--3--0-0--0--5--0-0-3h5-|-0-0--0--3--0-0--0--5--0-0-5h6-|
|-0-0--0-----0-0--0-----0-0-3h5-|-0-0--0-----0-0--0-----0-0-----|
|
|-------------------------------|-------------------------------|
|-------------------------------|-------------------------------|
|---------5----------7----------|---------5----------7------7h8-|
|---------5----------7----------|---------5----------7------7h8-|
|-0-0--0--3--0-0--0--5--0-0-3h5-|-0-0--0--3--0-0--0--5--0-0-5h6-|
|-0-0--0-----0-0--0-----0-0-3h5-|-0-0--0-----0-0--0-----0-0-----|
|
|-------------------------------|-------------------------------|
|-------------------------------|-------------------------------|
|---------5----------7----------|---------5----------7------7h8-|
|---------5----------7----------|---------5----------7------7h8-|
|-0-0--0--3--0-0--0--5--0-0-3h5-|-0-0--0--3--0-0--0--5--0-0-5h6-|
|-0-0--0-----0-0--0-----0-0-3h5-|-0-0--0-----0-0--0-----0-0-----|
|
|-------------------------------|-------------------------------|
|-------------------------------|-------------------------------|
|---------5----------7----------|---------5----------7------7h8-|
|---------5----------7----------|---------5----------7------7h8-|
|-0-0--0--3--0-0--0--5--0-0-3h5-|-0-0--0--3--0-0--0--5--0-0-5h6-|
|-0-0--0-----0-0--0-----0-0-3h5-|-0-0--0-----0-0--0-----0-0-----|
|
|-------------------------------|-------------------------------|
|-------------------------------|-------------------------------|
|---------5----------7----------|---------5----------7------7h8-|
|---------5----------7----------|---------5----------7------7h8-|
|-0-0--0--3--0-0--0--5--0-0-3h5-|-0-0--0--3--0-0--0--5--0-0-5h6-|
|-0-0--0-----0-0--0-----0-0-3h5-|-0-0--0-----0-0--0-----0-0-----|
|
|-------------------------------|-------------------------------|
|-------------------------------|-------------------------------|
|---------5----------7----------|---------5----------7------7h8-|
|---------5----------7----------|---------5----------7------7h8-|
|-0-0--0--3--0-0--0--5--0-0-3h5-|-0-0--0--3--0-0--0--5--0-0-5h6-|
|-0-0--0-----0-0--0-----0-0-3h5-|-0-0--0-----0-0--0-----0-0-----|
|
|--------------------------|
|--------------------------|
|---------5----------5-(5)-|
|---------5----------5-(5)-|
|-0-0--0--3--0-0--0--3-(3)-|
|-0-0--0-----0-0--0--------|
            
Hard to play? Try these video lessons and learn fast. | Correct




comments powered by Disqus
↑ Back to top | Tablatures and chords are parodies/interpretations of the original songs. You may use it for private study, scholarship, research or language learning purposes only