» » »

Chevelle, Grab Thy Hand Tabs (ver.2)

Artists:  A B C D E F G H I J K L M N O P Q R S T U V W X Y Z # 

Grab Thy Hand Tabs (ver.2)

Chevelle Tabs
 Rating:
4/5 (4 votes)
Grab Thy Hand lessons Tabs too difficult? Try these video lessons and learn fast
1
                Grab Thy hand Dropped-B

I can't really explain when to play these things cause it's constantly changing
Intro and such:
|------------------|
|------------------|
|------------------|
|----------------0-|
|------------------|
|00-00-00-00-0h1---|
sometimes:
|--------|
|--------|
|--------|
|xxxxxxxx|
|xxxxxxxx|
|xxxxxxxx|
Pick these:
|---|
|5-6|
|7-7|
|---|
|---|
|---|

Verse:
|---------|
|---------|
|---------|
|8--------|
|--5------|
|----0----|
Chorus sometimes:
|------------------|
|------------------|
|------------------|
|------------------|
|----3-----1---1h0-|
|00-0--00-0--0-----|
This is played a few times:
|-------|
|-------|
|-------|
|3--03--|
|3--03--|
|3--03--|
Outro:
|------------------|
|------------------|
|------------------|
|------------------|
|----3-----5-------|
|00-0--00-0--0-3h5-|
            
Submit corrections

comments powered by Disqus
↑ Back to top | Chevelle Tabs for Grab Thy Hand. Lyrics for acoustic guitar and electric guitar. 1 Tablatures and chords are parodies/interpretations of the original songs. You may use it for private study, scholarship, research or language learning purposes only