>
 >
Grab Thy Hand

Grab Thy Hand Guitar Tabs

Chevelle - Grab Thy Hand chords, tabs, tablatures, lyrics

Guitar lessons | Add/correct | Request | Top 50 tabs Artists:  A B C D E F G H I J K L M N O P Q R S T U V W X Y Z 0-9

Grab Thy Hand Guitar Tabs – Chevelle

CD, Sheet music, Poster

Do you like Grab Thy Hand? Share with your friends now
Bass TabsBass Tabs v2TabsTabs v2Tabs v3Tabs v4Tabs v5
Tuning: (low to high) B F# B E G# C#

I'm not sure at some parts but this seems pretty close i'd say it's 95% accurate at the least

Intro:
C#--------------------------------------
G#--------------------------------------
E---------------------------------------
B-----------------------0---------------
F#-0-0-0-0-0-0-0-0----------------------
B--0-0-0-0-0-0-0-0-0h1------------------

C#--------------------------------------------
G#--------------------------------------------
E---------------------------------------------
B-------------------xxxxxxxxx-----------------
F#-0-0-0-0-0-0-0-0--xxxxxxxxx-----------------
B--0-0-0-0-0-0-0-0--xxxxxxxxx-----------------

C#--------------------------------------
G#--------------------------------------
E---------------------------------------
B-----------------------0---------------
F#-0-0-0-0-0-0-0-0----------------------
B--0-0-0-0-0-0-0-0-0h1------------------

(this may not be right but it sounds pretty good anyways)
C#-0---0---0---0---1-1-1-1--------------
G#--3---3---3---3-----------------------
E----2---2---2---2----------------------
B---------------------------------------
F#--------------------------------------
B---------------------------------------


Pre-Verse
C#------------------------------------------
G#------------------------------------------
E----------------------------end on --------
B--8----------------------------------------
F#--5--------------------------------0-0----
B----0-0-0-0-0-0h1-0-----------------0-0----


Verse
C#--------------------------------------
G#--------------------------------------
E---------------------------------------
B---8------------------------------------
F#---5-----------------------------------
B-----0----------------------------------

Pre-Chorus
C#--------------------------------------
G#--------------------------------------
E---------------------------------------
B-----------------xxxxxxxx--------------
F#--0-0-0-0-0-0-0-xxxxxxxx--------------
B---0-0-0-0-0-0-0-xxxxxxxx--------------
p.m .............

Chorus 
C#--------------------------------------
G#--------------------------------------
E---------------------------------------
B---------5-------3---------------------(play 3 times)
F#--0-0-0-3-0-0-0-1-0h1-1p0-------------
B---0-0-0---0-0-0-----------------------
p.m     .       .

C#--------------------------------------
G#--------------------------------------
E---------------------------------------
B---------------------------------------(play 1 time)
F#-------3-------1-----1----------------
B--0-0-0---0-0-0---0-0------------------

Verse
C#--------------------------------------
G#--------------------------------------
E---------------------------------------
B--3---------1/3-3----------------------(play 2 x)
F#-3-(strum)-1/3-3----------------------
B--3---------1/3-3----------------------

C#--------------------------------------
G#--------------------------------------
E---------------------------------------
B--8---8--------------------------------
F#--5---5-------------------------------
B----0---0------------------------------

C#--------------------------------------
G#--------------------------------------
E---------------------------------------
B--3---------1/3-3----------------------(play 2 x)
F#-3-(strum)-1/3-3----------------------
B--3---------1/3-3----------------------

Pre Chorus (PLAY 2X)
C#--------------------------------------
G#--------------------------------------
E---------------------------------------
B-----------------------0---------------
F#-0-0-0-0-0-0-0-0----------------------
B--0-0-0-0-0-0-0-0-0h1------------------

C#--------------------------------------------
G#--------------------------------------------
E---------------------------------------------
B-------------------xxxxxxxxx-----------------
F#-0-0-0-0-0-0-0-0--xxxxxxxxx-----------------
B--0-0-0-0-0-0-0-0--xxxxxxxxx-----------------  

Chorus:
C#--------------------------------------
G#--------------------------------------
E---------------------------------------
B------------------0h1-1p0--------------
F#-0-0-0-0-0-0-0-0-0h1-1p0--------------
B--0-0-0-0-0-0-0-0-0h1-1p0--------------

C#-0---0---0---0---1-1-1-1--------------
G#--3---3---3---3-----------------------
E----2---2---2---2----------------------
B---------------------------------------
F#--------------------------------------
B---------------------------------------


C#------------------------------------------
G#------------------------------------------
E-------------------------------------------
B--8----------------------------------------
F#--5---------------------------------------
B----0-0-0-0-0-0h1-0------------------------

Bridge (2x)
C#------------------------------------------
G#------------------------------------------
E-------------------------------------------
B-------------------------------------------
F#-------1-------3--------------------------
B--0-0-0---0-0-0---0h1-1/3------------------
p.m    .       .

C#------------------------------------------
G#------------------------------------------
E-------------------------------------------
B-------------------------------------------
F#-------1-------3-----3/5------------------
B--0-0-0---0-0-0---0h1----------------------
p.m    .       .

(PLAY THIS TILL THE END OF THE SONG)
C#------------------------------------------
G#------------------------------------------
E-------------------------------------------
B--------3--------5-------------------------
F#-0-0-0-1-0-0-0--3-0h1-1/3-----------------
B--0-0-0---0-0-0----0h1-1/3-----------------
p.m    .       .

C#------------------------------------------
G#------------------------------------------
E-------------------------------------------
B--------3-------5---------7/8--------------
F#-0-0-0-1-0-0-0-3---0-0---5/6--------------
B--0-0-0---0-0-0-----0-0--------------------
p.m    .       .     . .





Comments


Popular Chevelle tabs & chords
Another Know It All Bass Tabs
Skeptic Chords
Bend The Bracket 2 Tabs
Emotional Drought Tabs
Indifference Tabs
One Lonely Visitor Tabs
Sleep Walking Elite Tabs
The Red 8 Tabs
Vitamin R Leading Us Along 1 Tabs
Well Enough Alone 7 Tabs


Song lyrics



↑ Back to top | Tablatures and chords are parodies/interpretations of the original songs. You may use it for private study, scholarship, research or language learning purposes only
© 2014 AZChords.com Contact us | Privacy policy | DMCA | Add/correct tabs | Request tabs | Top 50 tabs