» » »

Chevelle, Grab Thy Hand Bass tabs (ver.1)

Artists:  A B C D E F G H I J K L M N O P Q R S T U V W X Y Z # 

Grab Thy Hand Bass tabs (ver.1)

Chevelle Tabs
 Rating:
4/5 (4 votes)
Grab Thy Hand lessons Tabs too difficult? Try these video lessons and learn fast
1
                Chevelle


Tuned to flats
10 and 11 = 10 and 11, not 1's and 0's

Bass comes in at 0:14
Repeat until 0:40
G------------------------
D------------------------
A------------------------
E--88--88--88--898-------

0:40
Repeat until 1:20
G------------------------
D------------------------
A--11--------------------
E-------8----0~----------

1:20 to 1:34 no bass

1:34
Repeat 3x until 1:44
G----------------------
D----------------------
A----------------------
E---88-86--88-84--4864-

Bass fill

2:21
Repeat till 2:46
G------------------------
D------------------------
A------------------------
E--88--88--88--898-------

2:47
Repeat until 2:59
G------------------------
D------------------------
A--11--------------------
E-------8----0~----------

No bass till 3:04
Repeat till end
G------------------------
D------------------------
A------10-----11---1011--
E--88-8---88-8---88------

Hey, my first tab, I don't promise perfection.
I do promise a good time, Chevelle's great,
and this song is fun to play.
Have fun and email w/ any questions/
compliments/ flames. Thanx.
            
Submit corrections

comments powered by Disqus
↑ Back to top | Chevelle Bass for Grab Thy Hand. Lyrics for acoustic guitar and electric guitar. 1 Tablatures and chords are parodies/interpretations of the original songs. You may use it for private study, scholarship, research or language learning purposes only