» » »

Chevelle, Forfeit Tabs (ver.4)

Artists:  A B C D E F G H I J K L M N O P Q R S T U V W X Y Z # 

Forfeit Tabs (ver.4)

Chevelle Tabs
Rating:
0/5 (0 votes)
Forfeit lessons Tabs too difficult? Try these video lessons and learn fast
                Chevelle
Forfeit
Wonder What's Next

Tuning (Dropped B)-BFBEGC one and a half steps down,dropped D (like most of their stuff)

Intro/Verse

|--------------------------------------------------------------------------|
|--------------------------------------------------------------------------|
|--------------------------------------------------------------------------|
|--------------------------------------------------------------------------|
|--------------------------------------------------------------------------|
|-77-XXXXXXX-7-777-XXXXXXX-7-777-XXXXXXX-7-7777-5555-33-XXXXXXX-3-333-...--|

cont'd...

|--------------------------------------------------------------------------|
|--------------------------------------------------------------------------|
|--------------------------------------------------------------------------|
|--------------------------------------------------------------------------|
|--------------------------------------------------------------------------|
|-XXXXXXX-3-333-XXXXXXX-3-3333-2222----------------------------------------|

Pre-Chorus

|--------------------------------------------------------------------------|
|--------------------------------------------------------------------------|
|--------------------------------------------------------------------------|
|--------------------------------------------------------------------------|
|--------------------------------------------------------------------------|
|-7p0-000000-7p0-000000-7p0-000000-7p0-000000------------------------------|

Chorus

|------------|-------------------------------------------------------------|
|------------|-------------------------------------------------------------|
|------------|-------------------------------------------------------------|
|-7p0-000000-|-3-333-5-555-------------------------------------------------|
|-7p0-000000-|-3-333-5-555-------------------------------------------------|
|-7p0-000000-|-3-333-5-555-------------------------------------------------|
.............                                                               *play as needed

Bridge 1 "...i want to fight...i want to fight..." <>=harmonics

on the harmonics, i find on or around the fourth fret works well...on the cd, pete seems 
switch it up a little...so, if you want to, you can mix it up as well.

|--------------------------------------------------------------------------|
|----<4444>------<4444>------<4444>---------------<4444>------<4444>-------|
|----<4444>------<4444>------<4444>---------------<4444>------<4444>-------|
|-77--------7-777-------7-777-------7-7777-5555-33-------3-333-------------|
|-77--------7-777-------7-777-------7-7777-5555-33-------3-333-------------|
|-77--------7-777-------7-777-------7-7777-5555-33-------3-333--------...--|

cont'd

|--------------------------------------------------------------------------|
|------<4444>--------------------------------------------------------------|
|------<4444>--------------------------------------------------------------|
|-3-333-------3-3333-2222--------------------------------------------------|
|-3-333-------3-3333-2222--------------------------------------------------|
|-3-333-------3-3333-2222--------------------------------------------------|

Bridge 2 "...so step up..."

|----------|---------------------------------------------------------------|
|----------|---------------------------------------------------------------|
|----------|---------------------------------------------------------------|
|----------|---------------------------------------------------------------|
|-0-00-----|---------------------------------------------------------------|
|-0-00-0-00|-0000000000----------------------------------------------------|

           pm..........

end on:

|--------------------------------------------------------------------------|
|--------------------------------------------------------------------------|
|--------------------------------------------------------------------------|
|--------------------------------------------------------------------------|
|-00-----------------------------------------------------------------------|
|-00-----------------------------------------------------------------------|

thats basically it...just listen to the song so you know how many times to play 
because i just dont feel like typing out the song order. peace.
            

comments powered by Disqus
↑ Back to top | Chevelle Tabs for Forfeit. Lyrics for acoustic guitar and electric guitar. Tablatures and chords are parodies/interpretations of the original songs. You may use it for private study, scholarship, research or language learning purposes only