>
 >
Face To The Floor

Face To The Floor Guitar Tabs

Chevelle - Face To The Floor chords, tabs, tablatures, lyrics

Guitar lessons | Add/correct | Request | Top 50 tabs Artists:  A B C D E F G H I J K L M N O P Q R S T U V W X Y Z 0-9

Face To The Floor Guitar Tabs – Chevelle

CD, Sheet music, Poster

Do you like Face To The Floor? Share with your friends now
Bass TabsTabs
Tuning : drop C

edit on 11/24 : fixed a few minor little errors, added the bassline, and added in the lyrics
for good measure. should be perfect now. If you find something though leave me a comment
an I will fix it

. = palm mute
b = bend
t = tremelo pick

the top is the guitar line and the bottom is the bass.
Intro

So I was Thinking...



|-------|----------------------------------------------------------------------|
|-------|----------------------------------------------------------------------|
|-------|----------------------------------------------------------------------|
|-------|----------------------------------------------------------------------|
|-------|-----------5-3-0------------------5-3-0-----------------5-3-0---------|
|-12\-0-|-0-0-5-3-0-------5--3--0--0-5-3-0-------5-3b-0--0-5-3-0---------------|


|----------------------------|
|----------------------------|
|----------------------------|
|----------------------------|
|-----------------5-3-0------|
|-5-3-0--0-5-3-0--------5-5b-|



verse



  To pick up the tip doesn't mean a lot
|-----------------------------------------------------------------------------|
|-----------------------------------------------------------------------------|
|-----------------------------------------------------------------------------|
|-----------------------------------------------------------------------------|
|-------------------------5---3---0---------------------5-3-0-----------------|
|-----0----0--5--3--0----------------5--3--0--0--5-3-0---------5-3------------|
|
|-----------------------------------------------------------------------------|
|-----------------------------------------------------------------------------|
|-------------------------5---3---0---------------------5-3-0-----------------|
|-----0----0--5--3--0----------------5--3--0--0--5-3-0---------5-3------------|


      Feel it inside your drawers
|-----------------------------------------------------------------------------|
|-----------------------------------------------------------------------------|
|-----------------------------------------------------------------------------|
|-----------------------------------------------------------------------------|
|----------------------5--3--0---------------------5-3-0----------------------|
|-----0----0--5--3--0-----------5--3-0--0--5-3-0---------5b-------------------|
|
|------------------------------------------------------------------------------|
|------------------------------------------------------------------------------|
|----------------------5--3--0---------------------5-3-0-----------------------|
|-----0----0--5--3--0-----------5--3-0--0--5-3-0---------5---------------------|


  If  we own the night then spread it out
|-----------------------------------------------------------------------------|
|-----------------------------------------------------------------------------|
|-----------------------------------------------------------------------------|
|-----------------------------------------------------------------------------|
|--------------------------5--3---0----------------------5-3-0----------------|
|-----0----0--5--3------0--------------5--3--0--0--5-3-0---------5-3----------|
|
|-----------------------------------------------------------------------------|
|-----------------------------------------------------------------------------|
|--------------------------5--3---0----------------------5-3-0----------------|
|-----0----0--5--3------0--------------5--3--0--0--5-3-0---------5-3----------|

      Or  pack up   without a clue
|-----------------------------------------------------------------------------|
|-----------------------------------------------------------------------------|
|-----------------------------------------------------------------------------|
|-----------------------------------------------------------------------------|
|----------------------5--3--0---------------------5-3-0----------------------|
|-----0----0--5--3--0-----------5--3-0--0--5-3-0---------5b--3----------------|
|
|-----------------------------------------------------------------------------|
|-----------------------------------------------------------------------------|
|----------------------5--3--0---------------------5-3-0----------------------|
|-----0----0--5--3--0-----------5--3-0--0--5-3-0---------5---3----------------|


prechorus

  well cause by their own/ and by default/ time to vamanos
|------------------------------------------------------------------------------|
|------------------------------------------------------------10---------13-----|
|------------------------------------------------------------10---------12-----|
|-0---7----8--8-8-10----0---7-8--8-8-10--0--7-8--8-8-10--8-8-8----10-10-10-----|
|-0---7----8--8-8-10----0---7-8--8-8-10--0--7-8--8-8-10--8-8-8----10-10-10-----|
|-0---7----8--8-8-10----0---7-8--8-8-10--0--7-8--8-8-10--8-8-8----10-10-10-----|
|
|------------------------------------------------------------------------------|
|------------------------------------------------------------------------------|
|------------------------------------------------------------------------------|
|-0---7----8--8-8-10----0---7-8--8-8-10--0--7-8--8-8-10--8-8-8----10-10-10-----|

chorus


  like your face        getting forced     to the floor
|--------------------------------------------------------------------------------|
|--------------------------------------------------------------------------------|
|--------------------------------------------------------------------------------|
|-----------------5-3-----------------5-3-----------------5-3--------------------|
|-----------5-3-0-5-3-----------5-3-0-5-3-----------5-3-0-5-3-----------5-3-0----|
|-0-0-5-3-0-------5-3-0-0-5-3-0-------5-3-0-0-5-3-0-------5-3-0-0-5-3-0-------5b-|
|
|--------------------------------------------------------------------------------|
|--------------------------------------------------------------------------------|
|-----------5-3-0---------------5-3-0---------------5-3-0---------------5-3-0----|
|-0-0-5-3-0-------5-3-0-0-5-3-0-------5-3-0-0-5-3-0-------5-3-0-0-5-3-0-------5--|



verse



 well I    got a taste  of the benefits
|-----------------------------------------------------------------------------|
|-----------------------------------------------------------------------------|
|-----------------------------------------------------------------------------|
|-----------------------------------------------------------------------------|
|-------------------------5---3---0---------------------5-3-0-----------------|
|-----0----0--5--3--0----------------5--3--0--0--5-3-0---------5-3------------|
|
|-----------------------------------------------------------------------------|
|-----------------------------------------------------------------------------|
|-------------------------5---3---0---------------------5-3-0-----------------|
|-----0----0--5--3--0----------------5--3--0--0--5-3-0---------5-3------------|


      five  foot    of    change
|-----------------------------------------------------------------------------|
|-----------------------------------------------------------------------------|
|-----------------------------------------------------------------------------|
|-----------------------------------------------------------------------------|
|----------------------5--3--0---------------------5-3-0----------------------|
|-----0----0--5--3--0-----------5--3-0--0--5-3-0---------5b-------------------|
|
|-----------------------------------------------------------------------------|
|-----------------------------------------------------------------------------|
|----------------------5--3--0---------------------5-3-0----------------------|
|-----0----0--5--3--0-----------5--3-0--0--5-3-0---------5--------------------|


    Theres no better way to hash it out
|-----------------------------------------------------------------------------|
|-----------------------------------------------------------------------------|
|-----------------------------------------------------------------------------|
|-----------------------------------------------------------------------------|
|--------------------------5--3---0----------------------5-3-0----------------|
|-----0----0--5--3------0--------------5--3--0--0--5-3-0---------5-3----------|
|
|-----------------------------------------------------------------------------|
|-----------------------------------------------------------------------------|
|--------------------------5--3---0----------------------5-3-0----------------|
|-----0----0--5--3------0--------------5--3--0--0--5-3-0---------5-3----------|

      So lets set up your time to bail
|-----------------------------------------------------------------------------|
|-----------------------------------------------------------------------------|
|-----------------------------------------------------------------------------|
|-----------------------------------------------------------------------------|
|----------------------5--3--0---------------------5-3-0----------------------|
|-----0----0--5--3--0-----------5--3-0--0--5-3-0---------5b--3----------------|
|
|-----------------------------------------------------------------------------|
|-----------------------------------------------------------------------------|
|----------------------5--3--0---------------------5-3-0----------------------|
|-----0----0--5--3--0-----------5--3-0--0--5-3-0---------5---3----------------|


prechorus

  well cause now the cracks/ should we intervene?/ I hold this albatross
|------------------------------------------------------------------------------|
|------------------------------------------------------------10---------13-----|
|------------------------------------------------------------10---------12-----|
|-0---7----8--8-8-10----0---7-8--8-8-10--0--7-8--8-8-10--8-8-8----10-10-10-----|
|-0---7----8--8-8-10----0---7-8--8-8-10--0--7-8--8-8-10--8-8-8----10-10-10-----|
|-0---7----8--8-8-10----0---7-8--8-8-10--0--7-8--8-8-10--8-8-8----10-10-10-----|
|
|------------------------------------------------------------------------------|
|------------------------------------------------------------------------------|
|------------------------------------------------------------------------------|
|-0---7----8--8-8-10----0---7-8--8-8-10--0--7-8--8-8-10--8-8-8----10-10-10-----|


chorus


  like your face        getting forced     to the floor
|--------------------------------------------------------------------------------|
|--------------------------------------------------------------------------------|
|--------------------------------------------------------------------------------|
|-----------------5-3-----------------5-3-----------------5-3--------------------|
|-----------5-3-0-5-3-----------5-3-0-5-3-----------5-3-0-5-3-----------5-3-0----|
|-0-0-5-3-0-------5-3-0-0-5-3-0-------5-3-0-0-5-3-0-------5-3-0-0-5-3-0-------5b-|
|
|--------------------------------------------------------------------------------|
|--------------------------------------------------------------------------------|
|-----------5-3-0---------------5-3-0---------------5-3-0---------------5-3-0----|
|-0-0-5-3-0-------5-3-0-0-5-3-0-------5-3-0-0-5-3-0-------5-3-0-0-5-3-0-------5--|


   when either way      your way to         close to it all
|--------------------------------------------------------------------------------|
|--------------------------------------------------------------------------------|
|--------------------------------------------------------------------------------|
|-----------------5-3-----------------5-3-----------------5-3--------------------|
|-----------5-3-0-5-3-----------5-3-0-5-3-----------5-3-0-5-3-----------5-3-0----|
|-0-0-5-3-0-------5-3-0-0-5-3-0-------5-3-0-0-5-3-0-------5-3-0-0-5-3-0-------5b-|
|
|--------------------------------------------------------------------------------|
|--------------------------------------------------------------------------------|
|-----------5-3-0---------------5-3-0---------------5-3-0---------------5-3-0----|
|-0-0-5-3-0-------5-3-0-0-5-3-0-------5-3-0-0-5-3-0-------5-3-0-0-5-3-0-------5--|


interlude


      pay up      never       wait 'em out                         cover       me up       to you
|-------------------------------------------------------------------------------------------------|
|-------------------------------------------------------------------------------------------------|
|-------------------------------------------------------------------------------------------------|
|-5-3-5-3-x-x-x-x-5-3-x-x-x-x-5-3-5-3------------------------------5-3-x-x-x-x-5-3-x-x-x-x-5-3----|
|-5-3-5-3-x-x-x-x-5-3-x-x-x-x-5-3-5-3-----------5-3-0--------------5-3-x-x-x-x-5-3-x-x-x-x-5-3----|
|-5-3-5-3-x-x-x-x-5-3-x-x-x-x-5-3-5-3-0-0-5-3-0-------5-3-0-3-5-3--5-3-x-x-x-x-5-3-x-x-x-x-5-3-5b-|
|                                                         . . . .
|-------------------------------------------------------------------------------------------------|
|-------------------------------------------------------------------------------------------------|
|-------------------------------------------------------------------------------------------------|
|-5-3-5-3---------5-3----------5-3-5-3-0-0-5-3-0-------5-3-0-3-5-3--5-3--------5-3---------5-3-5--|
                                                          . . . .

                        take it all
|-------------------------------------------------------------------------------------------------|
|-------------------------------------------------------------------------------------------------|
|-------------------------------------------------------------------------------------------------|
|-------------------------------------------------------------------------------------------------|
|-3-5-3-5-3-5-3-5-3-6-3-5-3-5-3-5-3-5-3-5-3-6-3-5-3-5-3-5-3-5-3-5-3-6-3-5-3-5-3-5-3-5-3-5-3-6-3-5-|
|-0-0-0-0-0-0-0-0-0-0-0-0-0-0-0-0-0-0-0-0-0-0-0-0-0-0-0-0-0-0-0-0-0-0-0-0-0-0-0-0-0-0-0-0-0-0-0-0-|
|
|-------------------------------------------------------------------------------------------------|
|-------------------------------------------------------------------------------------------------|
|-3-5-3-5-3-5-3-5-3-6-3-5-3-5-3-5-3-5-3-5-3-6-3-5-3-5-3-5-3-5-3-5-3-6-3-5-3-5-3-5-3-5-3-5-3-6-3-5-|
|-------------------------------------------------------------------------------------------------|

                  your                mouth              blessed
|-------------------------------------------------------------------------------|
|-------------------------------------------------------------------------------|
|-------------------------------------------------------------------------------|
|-12-10-8-7-5-7-8-7---12-10-8-7-5-7-8-7---12-10-8-7-5-7-8-7---12-10-8-7-5-7-8-7-|
|-12-10-8-7-5-7-8-7---12-10-8-7-5-7-8-7---12-10-8-7-5-7-8-7---12-10-8-7-5-7-8-7-|
|-12-10-8-7-5-7-8-7---12-10-8-7-5-7-8-7---12-10-8-7-5-7-8-7---12-10-8-7-5-7-8-7-|
|
|-------------------------------------------------------------------------------|
|-------------------------------------------------------------------------------|
|-------------------------------------------------------------------------------|
|-12-10-8-7-5-7-8-7---12-10-8-7-5-7-8-7---12-10-8-7-5-7-8-7---12-10-8-7-5-7-8-7-|


                        take it all the way   right back down
|-------------------------------------------------------------------------------------------------|
|-------------------------------------------------------------------------------------------------|
|-------------------------------------------------------------------------------------------------|
|-------------------------------------------------------------------------------------------------|
|-3-5-3-5-3-5-3-5-3-6-3-5-3-5-3-5-3-5-3-5-3-6-3-5-3-5-3-5-3-5-3-5-3-6-3-5-3-5-3-5-3-5-3-5-3-6-3-5-|
|-0-0-0-0-0-0-0-0-0-0-0-0-0-0-0-0-0-0-0-0-0-0-0-0-0-0-0-0-0-0-0-0-0-0-0-0-0-0-0-0-0-0-0-0-0-0-0-0-|
|
|-------------------------------------------------------------------------------------------------|
|-------------------------------------------------------------------------------------------------|
|-3-5-3-5-3-5-3-5-3-6-3-5-3-5-3-5-3-5-3-5-3-6-3-5-3-5-3-5-3-5-3-5-3-6-3-5-3-5-3-5-3-5-3-5-3-6-3-5-|
|-------------------------------------------------------------------------------------------------|

                  cure                this               mess
|-------------------------------------------------------------------------------|
|-------------------------------------------------------------------------------|
|-------------------------------------------------------------------------------|
|-12-10-8-7-5-7-8-7---12-10-8-7-5-7-8-7---12-10-8-7-5-7-8-7---12-10-8-7-5-7-8-7-|
|-12-10-8-7-5-7-8-7---12-10-8-7-5-7-8-7---12-10-8-7-5-7-8-7---12-10-8-7-5-7-8-7-|
|-12-10-8-7-5-7-8-7---12-10-8-7-5-7-8-7---12-10-8-7-5-7-8-7---12-10-8-7-5-7-8-7-|
|
|-------------------------------------------------------------------------------|
|-------------------------------------------------------------------------------|
|-------------------------------------------------------------------------------|
|-12-10-8-7-5-7-8-7---12-10-8-7-5-7-8-7---12-10-8-7-5-7-8-7---12-10-8-7-5-7-8-7-|


  pay up      never     take it all
|----------------------------------|
|----------------------------------|
|----------------------------------|
|-5-3-x-x-x-x-5-3-x-x-x-x-5-3-5-3--|
|-5-3-x-x-x-x-5-3-x-x-x-x-5-3-5-3--|
|-5-3-x-x-x-x-5-3-x-x-x-x-5-3-5-3--|
|
|----------------------------------|
|----------------------------------|
|----------------------------------|
|-5-3----------5-3--------5-3-5-3--|

    take it all
|------------------------------------------------------------------------------|
|------------------------------------------------------------10---------13-----|
|------------------------------------------------------------10---------12-----|
|-0---7----8--8-8-10----0---7-8--8-8-10--0--7-8--8-8-10--8-8-8----10-10-10-----|
|-0---7----8--8-8-10----0---7-8--8-8-10--0--7-8--8-8-10--8-8-8----10-10-10-----|
|-0---7----8--8-8-10----0---7-8--8-8-10--0--7-8--8-8-10--8-8-8----10-10-10-----|
|
|------------------------------------------------------------------------------|
|------------------------------------------------------------------------------|
|------------------------------------------------------------------------------|
|-0---7----8--8-8-10----0---7-8--8-8-10--0--7-8--8-8-10--8-8-8----10-10-10-----|

chorus


  like your face        getting forced     to the floor
                                                       in a league of your own
|--------------------------------------------------------------------------------|
|--------------------------------------------------------------------------------|
|--------------------------------------------------------------------------------|
|-----------------5-3-----------------5-3-----------------5-3--------------------|
|-----------5-3-0-5-3-----------5-3-0-5-3-----------5-3-0-5-3-----------5-3-0----|
|-0-0-5-3-0-------5-3-0-0-5-3-0-------5-3-0-0-5-3-0-------5-3-0-0-5-3-0-------5b-|
|
|--------------------------------------------------------------------------------|
|--------------------------------------------------------------------------------|
|-----------5-3-0---------------5-3-0---------------5-3-0---------------5-3-0----|
|-0-0-5-3-0-------5-3-0-0-5-3-0-------5-3-0-0-5-3-0-------5-3-0-0-5-3-0-------5--|


   and either way      your way to         close to it all
                                                        you cannot veto the world
|--------------------------------------------------------------------------------|
|--------------------------------------------------------------------------------|
|--------------------------------------------------------------------------------|
|-----------------5-3-----------------5-3-----------------5-3--------------------|
|-----------5-3-0-5-3-----------5-3-0-5-3-----------5-3-0-5-3-----------5-3-0----|
|-0-0-5-3-0-------5-3-0-0-5-3-0-------5-3-0-0-5-3-0-------5-3-0-0-5-3-0-------5b-|
|
|--------------------------------------------------------------------------------|
|--------------------------------------------------------------------------------|
|-----------5-3-0---------------5-3-0---------------5-3-0---------------5-3-0----|
|-0-0-5-3-0-------5-3-0-0-5-3-0-------5-3-0-0-5-3-0-------5-3-0-0-5-3-0-------5--|



  like your face        getting forced     to the floor
                                                       in a league of your own
|--------------------------------------------------------------------------------|
|--------------------------------------------------------------------------------|
|--------------------------------------------------------------------------------|
|-----------------5-3-----------------5-3-----------------5-3--------------------|
|-----------5-3-0-5-3-----------5-3-0-5-3-----------5-3-0-5-3-----------5-3-0----|
|-0-0-5-3-0-------5-3-0-0-5-3-0-------5-3-0-0-5-3-0-------5-3-0-0-5-3-0-------5b-|
|
|--------------------------------------------------------------------------------|
|--------------------------------------------------------------------------------|
|-----------5-3-0---------------5-3-0---------------5-3-0---------------5-3-0----|
|-0-0-5-3-0-------5-3-0-0-5-3-0-------5-3-0-0-5-3-0-------5-3-0-0-5-3-0-------5--|


   and either way      your way to         close to it all     to close to it all

|-------------------------------------------------------------------------------------|
|-------------------------------------------------------------------------------------|
|-------------------------------------------------------------------------------------|
|-----------------5-3-----------------5-3-----------------5-3---------------------3-0-|
|-----------5-3-0-5-3-----------5-3-0-5-3-----------5-3-0-5-3-----------5-3-0-----3-0-|
|-0-0-5-3-0-------5-3-0-0-5-3-0-------5-3-0-0-5-3-0-------5-3-0-0-5-3-0-------5tb-3-0-|
|
|-------------------------------------------------------------------------------------|
|-------------------------------------------------------------------------------------|
|-----------5-3-0---------------5-3-0---------------5-3-0---------------5-3-0---------|
|-0-0-5-3-0-------5-3-0-0-5-3-0-------5-3-0-0-5-3-0-------5-3-0-0-5-3-0-------5---3-0-|

questions, or just leave a comment.
Also let me know if the tab is to clutterd with the bassline in it because this is the first
song I've tried this on.





Comments


Popular Chevelle tabs & chords
An Evening With El Diablo 3 Bass Tabs
The Red 7 Bass Tabs
Well Enough Alone Bass Tabs
One Lonely Visitor 2 Chords
Vitamin R Leading Us Along Chords
Black Boys On Mopeds Tabs
Grab Thy Hand Live Tabs
Open Tabs
Saferwaters 2 Tabs
Well Enough Alone 6 Tabs


Song lyrics



↑ Back to top | Tablatures and chords are parodies/interpretations of the original songs. You may use it for private study, scholarship, research or language learning purposes only
© 2014 AZChords.com Contact us | Privacy policy | DMCA | Add/correct tabs | Request tabs | Top 50 tabs