» » »

Chevelle, Envy Tabs (ver.1)

Artists:  A B C D E F G H I J K L M N O P Q R S T U V W X Y Z # 

Envy Tabs (ver.1)

Chevelle Tabs
 Rating:
4/5 (4 votes)
Envy lessons Tabs too difficult? Try these video lessons and learn fast
                Tuning: Drop B

intro


the number of 0's on the 2nd guitar here is probably wrong but you can
figure that much out on your own


|---------------------------------------------------------------------------|
|-----------------------------5h6--3-5-1-3----------------------------------|
|-------------------------------------------0h2------0-2-3----2-0-2---------|
|------------------------------------------------0~~--------0---------0-----|
|---------------------------------------------------------------------------|
|---------------------------------------------------------------------------|
|
|---------------------------------------------------------------------------|
|---------------------------------------------------------------------------|
|---------------------------------------------------------------------------|
|-0-0-0-0-0-0-0-0-0-0-0-0-0-0-0-0-0-0-0-0-0-0-0-0-0-0-0-0-0-0-0-0-0-0-0-0-0-|
|---------------------------------------------------------------------------|
|---------------------------------------------------------------------------|




|---------------------------------------------------------------------------|
|-5h6--3-5-1-3-------------------------5h6--3-5-1-3-------------------------|
|--------------0h2---0-2-3---2-0-2------------------0h2---0-2-3---2-0-2-----|
|------------------0-------3-------0--------------------0-------3-------0---|
|---------------------------------------------------------------------------|
|---------------------------------------------------------------------------|
|
|---------------------------------------------------------------------------|
|---------------------------------------------------------------------------|
|---------------------------------------------------------------------------|
|-0-0-0-0-0-0-0-0-0-0-0-0-0-0-0-0-0-0-0-0-0-0-0-0-0-0-0-0-0-0-0-0-0-0-0-0-0-|
|---------------------------------------------------------------------------|
|---------------------------------------------------------------------------|


    verse ( palm mute the low b string)

        How             will                this
|-----------------------------------------------------------------|
|-----------------------------------------------------------------|
|-----------------------------------------------------------------|
|-----------------------------------------------------------------|
|---------8-------------8-------------8-------------8-------------|
|-0-0-7-7---7-7-0-0-7-7---7-7-0-0-7-7---7-7-0-0-7-7--7-7-0-0------|

        pan out
|-----------------------------------------------------|
|-----------------------------------------------------|
|-----------------------------------------------------|
|-----------------------------------------------------|
|-----7-------------7-------------7-------------7-----|
|-7-7---7-7-0-0-7-7---7-7-0-0-7-7---7-7-0-0-7-7---7-7-|



        search         and                  wish
|-----------------------------------------------------------------|
|-----------------------------------------------------------------|
|-----------------------------------------------------------------|
|-----------------------------------------------------------------|
|---------8-------------8-------------8-------------8-------------|
|-0-0-7-7---7-7-0-0-7-7---7-7-0-0-7-7---7-7-0-0-7-7--7-7-0-0------|

        so   loud
|-----------------------------------------------------|
|-----------------------------------------------------|
|-----------------------------------------------------|
|-----------------------------------------------------|
|-----7-------------7-------------7-------------7-----|
|-7-7---7-7-0-0-7-7---7-7-0-0-7-7---7-7-0-0-7-7---7-7-|


          keep a candle burning
|-----------------------------------------------------------------|
|-----------------------------------------------------------------|
|-----------------------------------------------------------------|
|-----------------------------------------------------------------|
|---------8-------------8-------------8-------------8-------------|
|-0-0-7-7---7-7-0-0-7-7---7-7-0-0-7-7---7-7-0-0-7-7--7-7-0-0------|


|-----------------------------------------------------|
|-----------------------------------------------------|
|-----------------------------------------------------|
|-----------------------------------------------------|
|-----7-------------7-------------7-------------7-----|
|-7-7---7-7-0-0-7-7---7-7-0-0-7-7---7-7-0-0-7-7---7-7-|


          to each his own shall  learn
|-----------------------------------------------------------------|
|-----------------------------------------------------------------|
|-----------------------------------------------------------------|
|-----------------------------------------------------------------|
|---------8-------------8-------------8-------------8-------------|
|-0-0-7-7---7-7-0-0-7-7---7-7-0-0-7-7---7-7-0-0-7-7--7-7-0-0------|


|-----------------------------------------------------|
|-----------------------------------------------------|
|-----------------------------------------------------|
|-----------------------------------------------------|
|-----7-------------7-------------7-------------7-----|
|-7-7---7-7-0-0-7-7---7-7-0-0-7-7---7-7-0-0-7-7---7-7-|



 chorus


  before i turn     in envy         I learn through sorrow I
|-----------------------------------------------------------------|
|-----------------------------------------------------------------|
|-7-7-7-7-7-7-7-7-5-5-5-5-5-5-5-5---------------------------------|
|-7-7-7-7-7-7-7-7-5-5-5-5-5-5-5-5-3-3-3-3-3-3-3-3-5-5-5-5-5-5-5-5-|
|-5-5-5-5-5-5-5-5-3-3-3-3-3-3-3-3-3-3-3-3-3-3-3-3-5-5-5-5-5-5-5-5-|
|---------------------------------3-3-3-3-3-3-3-3-5-5-5-5-5-5-5-5-|

  turn   in      envy     and    go    to   the wall
|---------------------------------------------------|
|---------------------------------------------------|
|-7-7-7-7-7-7-7-7-5-5-5-5-5-5-5-5-------------------|
|-7-7-7-7-7-7-7-7-5-5-5-5-5-5-5-5-3-3-3-3-3-3-3-3-5-|
|-5-5-5-5-5-5-5-5-3-3-3-3-3-3-3-3-3-3-3-3-3-3-3-3-5-|
|---------------------------------3-3-3-3-3-3-3-3-5-|


 verse

   see how your colors run
|-----------------------------------------------------------------|
|-----------------------------------------------------------------|
|-----------------------------------------------------------------|
|-----------------------------------------------------------------|
|---------8-------------8-------------8-------------8-------------|
|-0-0-7-7---7-7-0-0-7-7---7-7-0-0-7-7---7-7-0-0-7-7--7-7-0-0------|
|
|
|-----------------------------------------------------------------|
|-----------------------------------------------------------------|
|-----------------------------------------------------------------|
|---------3------------3--------------3-------------3-------------|
|-----0------0-----0------0------0-------0------0-----0-----------|
|-0-------------0-------------0-------------0-------------0-------|



    and feel your sunday rest
|-----------------------------------------------------|
|-----------------------------------------------------|
|-----------------------------------------------------|
|-----------------------------------------------------|
|-----7-------------7-------------7-------------7-----|
|-7-7---7-7-0-0-7-7---7-7-0-0-7-7---7-7-0-0-7-7---7-7-|
|
|
|-----------------------------------------------------|
|-----------------------------------------------------|
|-----------------------------------------------------|
|-----2-------------2-------------2-------------2-----|
|-0------0------0------0------0-----0-------0------0--|
|-----------0-------------0-------------0-------------|

      give it a name, ring it in, some
|-----------------------------------------------------------------|
|-----------------------------------------------------------------|
|-----------------------------------------------------------------|
|-----------------------------------------------------------------|
|---------8-------------8-------------8-------------8-------------|
|-0-0-7-7---7-7-0-0-7-7---7-7-0-0-7-7---7-7-0-0-7-7--7-7-0-0------|
|
|
|------------------------------------------------------------------|
|------------------------------------------------------------------|
|------------------------------------------------------------------|
|---------3------------3--------------3-------------3--------------|
|-----0------0-----0------0------0-------0------0-----0------------|
|-0-------------0-------------0-------------0-------------0--------|



    change is for the best
|-----------------------------------------------------|
|-----------------------------------------------------|
|-----------------------------------------------------|
|-----------------------------------------------------|
|-----7-------------7-------------7-------------7-----|
|-7-7---7-7-0-0-7-7---7-7-0-0-7-7---7-7-0-0-7-7---7-7-|
|
|
|-----------------------------------------------------|
|-----------------------------------------------------|
|-----------------------------------------------------|
|-----2-------------2-------------2-------------2-----|
|-0------0------0------0------0-----0-------0------0--|
|-----------0-------------0-------------0-------------|

   0h I may not win the race, I may not reach the top, oh I may not live your way,
|-----------------------------------------------------------------|
|-----------------------------------------------------------------|
|-----------------------------------------------------------------|
|-----------------------------------------------------------------|
|---------8-------------8-------------8-------------8-------------|
|-0-0-7-7---7-7-0-0-7-7---7-7-0-0-7-7---7-7-0-0-7-7--7-7-0-0------|
|
|
|------------------------------------------------------------------|
|------------------------------------------------------------------|
|------------------------------------------------------------------|
|---------3------------3--------------3-------------3--------------|
|-----0------0-----0------0------0-------0------0-----0------------|
|-0-------------0-------------0-------------0-------------0--------|



 but it does not mean I'm stuck here
|-----------------------------------------------------|
|-----------------------------------------------------|
|-----------------------------------------------------|
|-----------------------------------------------------|
|-----7-------------7-------------7-------------7-----|
|-7-7---7-7-0-0-7-7---7-7-0-0-7-7---7-7-0-0-7-7---7-7-|
|
|
|-----------------------------------------------------|
|-----------------------------------------------------|
|-----------------------------------------------------|
|-----2-------------2-------------2-------------2-----|
|-0------0------0------0------0-----0-------0------0--|
|-----------0-------------0-------------0-------------|

   We may not fit the mold, kind of going off now, the medicine
|-----------------------------------------------------------------|
|-----------------------------------------------------------------|
|-----------------------------------------------------------------|
|-----------------------------------------------------------------|
|---------8-------------8-------------8-------------8-------------|
|-0-0-7-7---7-7-0-0-7-7---7-7-0-0-7-7---7-7-0-0-7-7--7-7-0-0------|
|
|
|------------------------------------------------------------------|
|------------------------------------------------------------------|
|------------------------------------------------------------------|
|---------3------------3--------------3-------------3--------------|
|-----0------0-----0------0------0-------0------0-----0------------|
|-0-------------0-------------0-------------0-------------0--------|



        inside takes a stronger hold
|-----------------------------------------------------|
|-----------------------------------------------------|
|-----------------------------------------------------|
|-----------------------------------------------------|
|-----7-------------7-------------7-------------7-----|
|-7-7---7-7-0-0-7-7---7-7-0-0-7-7---7-7-0-0-7-7---7-7-|
|
|
|-----------------------------------------------------|
|-----------------------------------------------------|
|-----------------------------------------------------|
|-----2-------------2-------------2-------------2-----|
|-0------0------0------0------0-----0-------0------0--|
|-----------0-------------0-------------0-------------|



chorus


   before i turn     in envy         I learn through sorrow I
|-----------------------------------------------------------------|
|-----------------------------------------------------------------|
|-7-7-7-7-7-7-7-7-5-5-5-5-5-5-5-5---------------------------------|
|-7-7-7-7-7-7-7-7-5-5-5-5-5-5-5-5-3-3-3-3-3-3-3-3-5-5-5-5-5-5-5-5-|
|-5-5-5-5-5-5-5-5-3-3-3-3-3-3-3-3-3-3-3-3-3-3-3-3-5-5-5-5-5-5-5-5-|
|---------------------------------3-3-3-3-3-3-3-3-5-5-5-5-5-5-5-5-|

  turn   in      envy     and    go    to   the wall
|-----------------------------------------------------------------|
|-----------------------------------------------------------------|
|-7-7-7-7-7-7-7-7-5-5-5-5-5-5-5-5---------------------------------|
|-7-7-7-7-7-7-7-7-5-5-5-5-5-5-5-5-3-3-3-3-3-3-3-3-5-5-5-5-5-5-5-5-|
|-5-5-5-5-5-5-5-5-3-3-3-3-3-3-3-3-3-3-3-3-3-3-3-3-5-5-5-5-5-5-5-5-|
|---------------------------------3-3-3-3-3-3-3-3-5-5-5-5-5-5-5-5-|


   before i learn     in envy         I learn through sorrow I
|-----------------------------------------------------------------|
|-----------------------------------------------------------------|
|-7-7-7-7-7-7-7-7-5-5-5-5-5-5-5-5---------------------------------|
|-7-7-7-7-7-7-7-7-5-5-5-5-5-5-5-5-3-3-3-3-3-3-3-3-5-5-5-5-5-5-5-5-|
|-5-5-5-5-5-5-5-5-3-3-3-3-3-3-3-3-3-3-3-3-3-3-3-3-5-5-5-5-5-5-5-5-|
|---------------------------------3-3-3-3-3-3-3-3-5-5-5-5-5-5-5-5-|


  learn   in      envy     and    go    to   the wall
|---------------------------------------------------|
|---------------------------------------------------|
|-7-7-7-7-7-7-7-7-5-5-5-5-5-5-5-5-------------------|
|-7-7-7-7-7-7-7-7-5-5-5-5-5-5-5-5-3-3-3-3-3-3-3-3-5-|
|-5-5-5-5-5-5-5-5-3-3-3-3-3-3-3-3-3-3-3-3-3-3-3-3-5-|
|---------------------------------3-3-3-3-3-3-3-3-5-|


interlude

to the wall
|-----------------------------------------------------------------|
|-----------------------------------------------------------------|
|-7-7-7-7-7-7-7-7-5-5-5-5-5-5-5-5---------------------------------|
|-7-7-7-7-7-7-7-7-5-5-5-5-5-5-5-5-3-3-3-3-3-3-3-3-5-5-5-5-5-5-5-5-|
|-5-5-5-5-5-5-5-5-3-3-3-3-3-3-3-3-3-3-3-3-3-3-3-3-5-5-5-5-5-5-5-5-|
|---------------------------------3-3-3-3-3-3-3-3-5-5-5-5-5-5-5-5-|

to the wall
|-----------------------------------------------------------------|
|-----------------------------------------------------------------|
|-7-7-7-7-7-7-7-7-5-5-5-5-5-5-5-5---------------------------------|
|-7-7-7-7-7-7-7-7-5-5-5-5-5-5-5-5-3-3-3-3-3-3-3-3-5-5-5-5-5-5-5-5-|
|-5-5-5-5-5-5-5-5-3-3-3-3-3-3-3-3-3-3-3-3-3-3-3-3-5-5-5-5-5-5-5-5-|
|---------------------------------3-3-3-3-3-3-3-3-5-5-5-5-5-5-5-5-|

to the wall
|-----------------------------------------------------------------|
|-----------------------------------------------------------------|
|-7-7-7-7-7-7-7-7-5-5-5-5-5-5-5-5---------------------------------|
|-7-7-7-7-7-7-7-7-5-5-5-5-5-5-5-5-3-3-3-3-3-3-3-3-5-5-5-5-5-5-5-5-|
|-5-5-5-5-5-5-5-5-3-3-3-3-3-3-3-3-3-3-3-3-3-3-3-3-5-5-5-5-5-5-5-5-|
|---------------------------------3-3-3-3-3-3-3-3-5-5-5-5-5-5-5-5-|

to the wall
|-----------------------------------------------------------------|
|-----------------------------------------------------------------|
|-7-7-7-7-7-7-7-7-5-5-5-5-5-5-5-5---------------------------------|
|-7-7-7-7-7-7-7-7-5-5-5-5-5-5-5-5-3-3-3-3-3-3-3-3-5-5-5-5-5-5-5-5-|
|-5-5-5-5-5-5-5-5-3-3-3-3-3-3-3-3-3-3-3-3-3-3-3-3-5-5-5-5-5-5-5-5-|
|---------------------------------3-3-3-3-3-3-3-3-5-5-5-5-5-5-5-5-|

   before i turn     in envy         I learn through sorrow I
to the wall
|-----------------------------------------------------------------|
|-----------------------------------------------------------------|
|-7-7-7-7-7-7-7-7-5-5-5-5-5-5-5-5---------------------------------|
|-7-7-7-7-7-7-7-7-5-5-5-5-5-5-5-5-3-3-3-3-3-3-3-3-5-5-5-5-5-5-5-5-|
|-5-5-5-5-5-5-5-5-3-3-3-3-3-3-3-3-3-3-3-3-3-3-3-3-5-5-5-5-5-5-5-5-|
|---------------------------------3-3-3-3-3-3-3-3-5-5-5-5-5-5-5-5-|

  turn   in      envy     and    go                 to   the wall
to the wal
|------------------------------------------------------|
|------------------------------------------------------|
|-7-7-7-7-7-7-7-7-5-5-5-5-5-5-5-5----------------------|
|-7-7-7-7-7-7-7-7-5-5-5-5-5-5-5-5-3-3-3-3-3-3-3-3-5-\0-|
|-5-5-5-5-5-5-5-5-3-3-3-3-3-3-3-3-3-3-3-3-3-3-3-3-5-\0-|
|---------------------------------3-3-3-3-3-3-3-3-5-\0-|


outro

|-----------------------------------------------------------------|
|-----------------------------------------------------------------|
|-----------------------------------------------------------------|
|---------3------------3--------------3-------------3-------------|
|-----0------0-----0------0------0-------0------0-----0-----------|
|-0-------------0-------------0-------------0-------------0-------|


|-----------------------------------------------------|
|-----------------------------------------------------|
|-----------------------------------------------------|
|-----2-------------2-------------2-------------2-----|
|-0------0------0------0------0-----0-------0------0--|
|-----------0-------------0-------------0-------------|



|-----------------------------------------------------------------|
|-----------------------------------------------------------------|
|-----------------------------------------------------------------|
|---------3------------3--------------3-------------3-------------|
|-----0------0-----0------0------0-------0------0-----0-----------|
|-0-------------0-------------0-------------0-------------0-------|

|-----------------------------------------------------|
|-----------------------------------------------------|
|-----------------------------------------------------|
|-----2-------------2-------------2-------------2-----|
|-0------0------0------0------0-----0-------0------0--|
|-----------0-------------0-------------0-------------|


|-----------------------------------------------------------------|
|-----------------------------------------------------------------|
|-----------------------------------------------------------------|
|---------3------------3--------------3-------------3-------------|
|-----0------0-----0------0------0-------0------0-----0-----------|
|-0-------------0-------------0-------------0-------------0-------|


|-------------------------------------------------------|
|-------------------------------------------------------|
|-------------------------------------------------------|
|-----2-------------2-------------2-------------2-------|
|-0------0------0------0------0-----0-------0------0----|
|-----------0-------------0-------------0-------------0-|
            
Submit corrections

comments powered by Disqus
↑ Back to top | Chevelle Tabs for Envy. Lyrics for acoustic guitar and electric guitar. Tablatures and chords are parodies/interpretations of the original songs. You may use it for private study, scholarship, research or language learning purposes only