» » »

Chevelle, Comfortable Lair Tabs (ver.1)

Artists:  A B C D E F G H I J K L M N O P Q R S T U V W X Y Z # 

Comfortable Lair Tabs (ver.1)

Chevelle Tabs
Rating:
0/5 (0 votes)
Comfortable Lair lessons Tabs too difficult? Try these video lessons and learn fast
                intro
|----------------------------------------------
|----------------------------------------------
|----------------------------------------------
|--4-0-4-0-000---4-0-4-0-00---4-0-4-0-000------2X
|--4-0-4-0-000---4-0-4-0-00---4-0-4-0-000------
|--2-0-2-0-000---2-0-2-0-00---2-0-2-0-000------
pm                       .            ... 


riff
|----------------------------------------------
|----------------------------------------------
|----------------------------------------------
|--4-0-4-0-000---4-0-4-0-000---4-0-4-0-000-----
|--4-0-4-0-000---4-0-4-0-000---4-0-4-0-000-----
|--2-0-2-0-000---2-0-2-0-000---2-0-2-0-000-----

chorus (when u hear this hold it)
|----------------------------------------------
|----------------------------------------------
|----------------------------------------------
|--2-------------------------------------------
|--2-------------------------------------------
|--0-------------------------------------------
HOLD _________________________________________

Chorus 2
|----------------------------------------------
|----------------------------------------------
|----------------------------------------------
|---22-2-22-2-22-2-22-2-22-2-------------------X7
|---22-2-22-2-22-2-22-2-22-2-------------------
|---00-0-00-0-00-0-00-0-00-0-------------------
PM  ..   ..   ..   ..   ..    

I thin i did this 1 pretty good chech out "the red" i also did 1 4 that.
            

comments powered by Disqus
↑ Back to top | Chevelle Tabs for Comfortable Lair. Lyrics for acoustic guitar and electric guitar. Tablatures and chords are parodies/interpretations of the original songs. You may use it for private study, scholarship, research or language learning purposes only