» » »

Chevelle, Closure Bass tabs (ver.1)

Artists:  A B C D E F G H I J K L M N O P Q R S T U V W X Y Z # 

Closure Bass tabs (ver.1)

Chevelle Tabs
 Rating:
4/5 (4 votes)
Closure lessons Tabs too difficult? Try these video lessons and learn fast
1
                I tabbed this by ear, watching them play it live, and knowing how to play it on 
guitar.  I'm about 99.9% that it is correct.  It's easy and fun to play.

Tuning: B F# B E (from low to high)

No Bass Until 0:18 

E |---------------------------------------------|
B |---------------------------------------------|
F#|---------------------------------------------|
B |-0~--0~--0~--0~--0~--0~--0~--0~--------------|


0:27 x3
E |---------------------------------------------|
B |---------------------------------------------|
F#|---------------------------------------------|
B |-3353033530--5575055750----------------------|

0:41 x4                                    
E |-----------------------------------|---------|   
B |---------32------------------------|---------| 
F#|-----------0--1-1-11-1-1-11-1-1-11-|---------| 
B |-0~--------------------------------|-3-0-3-0-|

1:20
E |---------------------------------------------|
B |---------------------------------------------|
F#|---------------------------------------------|
B |-0~--0~--0~--0~--0~--0~--0~--0~--------------|

1:38 x3
E |---------------------------------------------|
B |---------------------------------------------|
F#|---------------------------------------------|
B |-3353033530--5575055750----------------------|

1:52 x4
E |-----------------------------------|---------|   
B |---------32------------------------|---------| 
F#|-----------0--1-1-11-1-1-11-1-1-11-|---------| 
B |-0~--------------------------------|-3-0-3-0-|

2:30
E |---------------------------------------------|
B |---------------------------------------------|
F#|---------------------------------------------|
B |-0~--0~--0~--0~--0~--0~--0~--0~--------------|

2:50 x3
E |---------------------------------------------|
B |---------------------------------------------|
F#|---------------------------------------------|
B |-3353033530--5575055750----------------------|

3:04 x4
E |-----------------------------------|---------|   
B |---------32------------------------|---------| {This time play the  }
F#|-----------0--1-1-11-1-1-11-1-1-11-|---------| {"3-0-3-0" on the 2nd} 
B |-0~--------------------------------|-3-0-3-0-| {and 4th time        }  

Outro 3:41
E |---------------------------------------------|
B |---------------------------------------------|  
F#|---------------------------------------------|
B |---------------------------------------------|

3:46
E |---------------------------------------------|
B |---------------------------------------------|
F#|---------------------------------------------|
B |------------------------3-3-3-3--00000-------|

3:50 x4 
E |---------------------------------------------|
B |---------------------------------------------|
F#|-8-8-8-7-7-7-5-------------------------------|
B |---------------7-7-7-7--3-3-3-3--00000-------|


 *** Note: On the chorus Dean plays 8's on the *** 
 *** low B string instead of 1's on the F#     ***
 *** string but I play it this way because     ***
 *** it's easier but it is up to you.          *** 
            
Submit corrections

comments powered by Disqus
↑ Back to top | Chevelle Bass for Closure. Lyrics for acoustic guitar and electric guitar. 1 Tablatures and chords are parodies/interpretations of the original songs. You may use it for private study, scholarship, research or language learning purposes only