>
 >
Build

Build Guitar Tabs

Chevelle - Build chords, tabs, tablatures, lyrics

Guitar lessons | Add/correct | Request | Top 50 tabs Artists:  A B C D E F G H I J K L M N O P Q R S T U V W X Y Z 0-9

Build Guitar Tabs – Chevelle

CD, Sheet music, Poster

Do you like Build? Share with your friends now
Tabs
Chevelle - Build
Drop D Tuning

Intro - Clean
E ---------------------------------------------------------------|
B ---------------------------------------------------------------|
G --------4--------66---------4-------66-------------------------|
D --444x--4--222x--66--4444x--4--222--66---Repeat a few of times-|
A --444x--2--222x--44--4444x--2--222--44----Listen to the song---|
D --444x-----222x------4444x-----222-----------------------------|

Chorus - Distortion
E ---------------------------------------------------------------|
B ---------------------------------------------------------------|
G -------4-------66--------4-------66----------------------------|
D --444--4--222--66--4444--4--222--66---2-----Hold Note----------|
A --444--2--222--44--4444--2--222--44---2----After Chorus--------|
D --444-----222------4444-----222-------2------------------------|

E ---------------------------------------------------------------|
B ---------------------------------------------------------------|
G --------4--------66---------4-------66-------------------------|
D --444x--4--222x--66--4444x--4--222--66--Repeat a few of times--|
A --444x--2--222x--44--4444x--2--222--44---Listen to the song----|
D --444x-----222x------4444x-----222-----------------------------|

Chorus - Distortion
E ---------------------------------------------------------------|
B ---------------------------------------------------------------|
G -------4-------66--------4-------66----------------------------|
D --444--4--222--66--4444--4--222--66--2-2-2---------------------|
A --444--2--222--44--4444--2--222--44--2-2-2---------------------|
D --444-----222------4444-----222------2-2-2---------------------|


E -------------------------------     -------|
B -------------------------------     -------|
G -------------------------------     -------|
D -------------------------------     -2-2-2-|
A ------------4-2-2-2-2-2-0------     -2-2-2-|
D -4-4-4-4-7----------------2----     -2-2-2-|

E -------------------------------     -------|
B -------------------------------     -------|
G -------------------------------     -------|
D -------------------2-X-2/4-----     -2-2-2-|
A -----------4-2-2-2-------------     -2-2-2-|
D -4-4-4-4-7---------------------     -2-2-2-|

E ---------------|
B ---------------|
G ---------------|
D -2--Hold note--|
A -2--- Again----|
D -2-------------|

E ------------------------------|
B ------------------------------|
G --------6--999999999999999999-|
D -2/4--6/6--999999999999999999-|
A -2/4--6/4--777777777777777777-|
D -2/4--6-----------------------|

E ------------------------------|
B ------------------------------|
G --------6---------------------|
D -2/4--6/6---------------------|
A -2/4--6/4--222222222222222222-|
D -2/4--6-----------------------|

E ---------------------------|
B ---------------------------|
G --------6----4-------------|
D -2/4--6/6----4--Hold Note--|
A -2/4--6/4----2-------------|
D -2/4--6--------------------|





Comments


Popular Chevelle tabs & chords
Forfeit 1 Bass Tabs
Point No 1 Bass Tabs
The Red Bass Tabs
Bend The Bracket 1 Tabs
Braniac Tabs
Closure 3 Tabs
Closure 5 Tabs
Grab Thy Hand 3 Tabs
The Clincher Tabs
The Red 5 Tabs


Song lyrics



↑ Back to top | Tablatures and chords are parodies/interpretations of the original songs. You may use it for private study, scholarship, research or language learning purposes only
© 2014 AZChords.com Contact us | Privacy policy | DMCA | Add/correct tabs | Request tabs | Top 50 tabs