» » »

Chevelle, Breach Birth Bass tabs (ver.1)

Artists:  A B C D E F G H I J K L M N O P Q R S T U V W X Y Z # 

Breach Birth Bass tabs (ver.1)

Chevelle Tabs
 Rating:
4.3/5 (6 votes)
Breach Birth lessons Tabs too difficult? Try these video lessons and learn fast
1
                -------------------------------------------------------------------------------
-------------------------------------------------------------------------------


Tuning: Down 1/2 step (I know Chevelle plays with Drop A#, but its just easy for me to play on five)


Intro/Chorus Riff B       the on 4th time  play this
G|--------------------|                    G|-------------------------------|
D|--------------------|                    D|-------------------------------|
A|--------------------|                    A|-------------------------------|
E|-7-------75---58----|                    E|-7-------777-777---------------|
B|---0-00-----0----0--|                    B|---0-00------------------------|

Verse Riff A
No Bass

Verse Riff B
G|---------------------------------------------------------------------------|
D|---------------------------------------------------------------------------|
A|---------------------------------------------------------------------------|
E|-7-77-7-77-3-33-3-33-----------2-22-2-22-----------------------------------|
B|---------------------3-33-3-33---------------------------------------------|

Post Verse/Pre-Chorus Riff
G|---------------------------------------------------------------------------|
D|---------------------------------------------------------------------------|
A|---------------------------------------------------------------------------|
E|---------------------------------------------------------------------------|
B|-0000-753035--3333-753035--0000-753035-3~----------------------------------|

Chorus Riff A
G|---------------------------------------------------------------------------|
D|---------------------------------------------------------------------------|
A|---------------------------------------------------------------------------|
E|-3-333335--3-333335--3-333335--3-33-3-55-----------------------------------|
B|---------------------------------------------------------------------------|

Bridge
G|---------------------------------------------------------------------------|
D|---------------------------------------------------------------------------|
A|---------------------------------------------------------------------------|
E|-7------7------7------75---58----------------------------------------------|
B|---0-00---0-00---0-00----0----0--------------------------------------------|

Song Order:

Intro  X2
Verse A X2
Verse B X2
Post Verse/Pre-Chorus
Chorus Riff A
Chorus Riff B
Chorus Riff A
Chorus Riff B
Verse A X2
Verse B X2
Post Verse/Pre-Chorus
Chorus Riff A
Chorus Riff B
Chorus Riff A
Chorus Riff B
Bridge X4
Chorus Riff A
Chorus Riff B
Chorus Riff A
Chorus Riff B



| /  slide up
| \  slide down
| h  hammer-on
| p  pull-off
| ~  Let ring
| +  harmonic
| x  Mute note
===============================================================================
            
Submit corrections

comments powered by Disqus
↑ Back to top | Chevelle Bass for Breach Birth. Lyrics for acoustic guitar and electric guitar. 1 Tablatures and chords are parodies/interpretations of the original songs. You may use it for private study, scholarship, research or language learning purposes only