» » »

Chevelle, Arise Bass tabs (ver.1)

Artists:  A B C D E F G H I J K L M N O P Q R S T U V W X Y Z # 

Arise Bass tabs (ver.1)

Chevelle Tabs
 Rating:
4/5 (4 votes)
Arise lessons Tabs too difficult? Try these video lessons and learn fast
                                                            ::
                                                 ::Hats Off to the Bull - Chevelle::
                                            ::


Tuning: Drop C (CGCF)

Intro

F|--------------|
C|---------4----|
G|555/--2-------|
C|--------------|

Play 4 times
F|----------------------------------------|
C|----------------------------------------|
G|2222222222-4444-6666-8888-7777777777777-|
C|----------------------------------------|

Chorus
F|--------------------------------------------------------------------|
C|--------------------------------------------------------------------|
G|555555555555555555555555555555555-2222222222222222-0000000000000000-|
C|--------------------------------------------------------------------|

After chorus
F|-------------------------------|
C|-------------------------------|
G|222222-4-6-8-77777777777777777-|
C|-------------------------------|

Play three times
F|----------------------------------------------|
C|----------------------------------------------|
G|-2222222222-4444-6666-8888-7777777777777------|
C|----------------------------------------------|

Chorus (play twice)
F|--------------------------------------------------------------------|
C|--------------------------------------------------------------------|
G|555555555555555555555555555555555-2222222222222222-0000000000000000-|
C|--------------------------------------------------------------------|

Building up to bridge
F|----------------------|
C|----------------------|
G|-------0~----------0~-|
C|5~-----------5~-------|

Bridge
(Play this verse twice)
F|--------------------------------------|
C|--------------------------------------|
G|---------55555555-00000000------------|    
C|55555555-------------------2222224----|

F|-----------------------------------|
C|-----------------------------------|
G|---------22222222-55555555---------|
C|55555555-------------------2222224-|

F|--------------------------------------------|
C|--------------------------------------------|
G|---------22222222-55555555----------------5~|
C|55555555-------------------2~---------------|


F|--------------------------------------------------------------------|
C|--------------------------------------------------------------------|
G|2222222222222222-0000000000000000-55555555555555555555555555555555--|
C|--------------------------------------------------------------------|

F|--------------------------------------------------------------------|
C|--------------------------------------------------------------------|
G|2222222222222222-0000000000000000------------------0000000000000000-|
C|----------------------------------5555555555555555------------------|

F|--------------------------------------------------------------------|
C|--------------------------------------------------------------------|
G|22222222-5555-7777-000000000000000-----------------0000000000000000-|
C|-----------------------------------555555555555555------------------|

Outro
F|--------------------------------------------|
C|--------------------------------------------|
G|2~---------0~-----------------0~---------2~-|
C|---------------------5~---------------------|


| /  slide up
| \  slide down
| h  hammer-on
| p  pull-off
| ~  vibrato
| +  harmonic
| x  Mute note
=========================================================================
======
            
Submit corrections

comments powered by Disqus
↑ Back to top | Chevelle Bass for Arise. Lyrics for acoustic guitar and electric guitar. Tablatures and chords are parodies/interpretations of the original songs. You may use it for private study, scholarship, research or language learning purposes only