>
 >
A New Momentum 1

A New Momentum 1 Guitar Tabs

Chevelle - A New Momentum 1 chords, tabs, tablatures, lyrics

Guitar lessons | Add/correct | Request | Top 50 tabs Artists:  A B C D E F G H I J K L M N O P Q R S T U V W X Y Z 0-9

A New Momentum 1 Guitar Tabs – Chevelle

CD, Sheet music, Poster

Do you like A New Momentum 1? Share with your friends now
TabsTabs v2
Label: Epic

        99% sure it's correct, e-mail me for suggestions or chevelle tabs, and have some fun!...

tuning: Drop c#

intro

-12-12-12-12-12-12-12-12-12-12-12-12-12-12--15-15-15-15-15-15-15-15-15-15-|
--------------------------------------------------------------------------|
-9--9--9--9--9--9--9--9--9--9--9--9--9---9--12-12-12-12-12-12-12-12-12-12-|
--------------------------------------------------------------------------|
--------------------------------------------------------------------------|
--------------------------------------------------------------------------|

-15-15-15-15-12-12-12-12-12-12-12-12-12-12-12-12-12-12-17-17-17-17-17-17-17-|
----------------------------------------------------------------------------|
-12-12-12-12-9--9--9--9--9--9--9--9--9--9--9--9--9--9--14-14-14-14-14-14-14-|
----------------------------------------------------------------------------|
----------------------------------------------------------------------------|
----------------------------------------------------------------------------|

-17-17-17-17-17-17-17-|
----------------------|
-14-14-14-14-14-14-14-|
----------------------|
----------------------|
----------------------|


-12-12-12-12-12-12-12-12-12-12-12-12-12-12--15-15-15-15-15-15-15-15-15-15-|
--------------------------------------------------------------------------|
-9--9--9--9--9--9--9--9--9--9--9--9--9---9--12-12-12-12-12-12-12-12-12-12-|
--------------------------------------------------------------------------|
--------------------------------------------------------------------------|
--------------------------------------------------------------------------|

-15-15-15-15-12-12-12-12-12-12-12-12-12-12-12-12-12-12-17-17-17-17-17-17-17-|
----------------------------------------------------------------------------|
-12-12-12-12-9--9--9--9--9--9--9--9--9--9--9--9--9--9--14-14-14-14-14-14-14-|
----------------------------------------------------------------------------|
----------------------------------------------------------------------------|
----------------------------------------------------------------------------|

-17-17-17-17-17-17-17-|
----------------------|
-14-14-14-14-14-14-14-|
----------------------|
----------------------|
----------------------|

chorus

-----------------------------------------|
-----------------------------------------|
-----------------------------------------|
-2--2-2--7--7-7--0--0-0--5--5-5--0-0-2-0-|
-2--2-2--7--7-7--0--0-0--5--5-5--0-0-2-0-|
-2--2-2--7--7-7--0--0-0--5--5-5--0-0-2-0-|

-----------------------------------------|
-----------------------------------------|
-----------------------------------------|
-2--2-2--7--7-7--0--0-0--5--5-5--0-0-2-0-|
-2--2-2--7--7-7--0--0-0--5--5-5--0-0-2-0-|
-2--2-2--7--7-7--0--0-0--5--5-5--0-0-2-0-|

[-----------------------------------------|
[-----------------------------------------|
[-----------------------------------------|
[-2--2-2--7--7-7--0--0-0--5--5-5--0-0-2-0-|
[-2--2-2--7--7-7--0--0-0--5--5-5--0-0-2-0-|
[-2--2-2--7--7-7--0--0-0--5--5-5--0-0-2-0-|
[
[-----------------------------------------|
[-----------------------------------------|
[-9--9-9--14--14-14--7--7-7--12--12-12----|
[-----------------------------------------|
[-7--7-7--12--12-12--5--5-5--10--10-10----|
[-----------------------------------------|

[-----------------------------------------|
[-----------------------------------------|
[-----------------------------------------|
[-2--2-2--7--7-7--0--0-0--5--5-5--0-0-2-0-|
[-2--2-2--7--7-7--0--0-0--5--5-5--0-0-2-0-|
[-2--2-2--7--7-7--0--0-0--5--5-5--0-0-2-0-|
[
[-----------------------------------------[
[-----------------------------------------[
[-9--9-9--14--14-14--7--7-7--12--12-12----[
[-----------------------------------------[
[-7--7-7--12--12-12--5--5-5--10--10-10----[
[-----------------------------------------[

Verse (clean)

should we ignore
-------------------|
-------------------|
-----------------5-|
-2--2-2--7--7-7--5-|
-2--2-2--7--7-7--3-|
-2--2-2--7--7-7----|

this was too intense
-------------------|
-------------------|
-----------------5-|
-2--2-2--7--7-7--5-|
-2--2-2--7--7-7--3-|
-2--2-2--7--7-7----|

too awful
-------------------|
-------------------|
-----------------5-|
-2--2-2--7--7-7--5-|
-2--2-2--7--7-7--3-|
-2--2-2--7--7-7----|

please stand still
-------------------|
-------------------|
-----------------5-|
-2--2-2--7--7-7--5-|
-2--2-2--7--7-7--3-|
-2--2-2--7--7-7----|

to size them all
-------------------|
-------------------|
-----------------5-|
-2--2-2--7--7-7--5-|
-2--2-2--7--7-7--3-|
-2--2-2--7--7-7----|

his monetary gain equals
-------------------|
-------------------|
-----------------5-|
-2--2-2--7--7-7--5-|
-2--2-2--7--7-7--3-|
-2--2-2--7--7-7----|

his monetary
-------------------|
-------------------|
-----------------5-|
-2--2-2--7--7-7--5-|
-2--2-2--7--7-7--3-|
-2--2-2--7--7-7----|

mind
-------------------[
-------------------[
-----------------5-[
-2--2-2--7--7-7--5-[
-2--2-2--7--7-7--3-[
-2--2-2--7--7-7----[

pre chorus

 even if the saints gave their all  like lions in the face of a growing crowd
----------------------------------------------------------------------------|
----------------------------------------------------------------------------|
----------------------------------------------------------------------------|
-9-9-9-9-9-9-9-9-9-9-9-9-9-9-11-12-0-9-9-9-9-9-9-9-9-9-9-9-9-9-9-11-12-11-2-|
-9-9-9-9-9-9-9-9-9-9-9-9-9-9-11-12-0-9-9-9-9-9-9-9-9-9-9-9-9-9-9-11-12-11-2-|
-9-9-9-9-9-9-9-9-9-9-9-9-9-9-11-12-0-9-9-9-9-9-9-9-9-9-9-9-9-9-9-11-12-11-2-|

to little and to late on the day                  when all
----------------------------------------------------------------|
----------------------------------------------------------------|
----------------------------------------------------------------|
-9-9-9-9-9-9-9-9-9-9-9-9-9-9-11-12-0-x-x--x-x-x-x-9-9-9-9-9-9-9-|
-9-9-9-9-9-9-9-9-9-9-9-9-9-9-11-12-0-x-x--x-x-x-x-9-9-9-9-9-9-9-|
-9-9-9-9-9-9-9-9-9-9-9-9-9-9-11-12-0-x-x--x-x-x-x-9-9-9-9-9-9-9-|

 will fall
--------------------------[
--------------------------[
--------------------------[
-9-9-9-9-9-9-9-11-12-11-2-[
-9-9-9-9-9-9-9-11-12-11-2-[
-9-9-9-9-9-9-9-11-12-11-2-[

chorus

so         drawing           into
-----------------------------------------|
-----------------------------------------|
-----------------------------------------|
-2--2-2--7--7-7--0--0-0--5--5-5--0-0-2-0-|
-2--2-2--7--7-7--0--0-0--5--5-5--0-0-2-0-|
-2--2-2--7--7-7--0--0-0--5--5-5--0-0-2-0-|

one     another     keeps momentum
-----------------------------------------|
-----------------------------------------|
-----------------------------------------|
-2--2-2--7--7-7--0--0-0--5--5-5--0-0-2-0-|
-2--2-2--7--7-7--0--0-0--5--5-5--0-0-2-0-|
-2--2-2--7--7-7--0--0-0--5--5-5--0-0-2-0-|

  driving     forward  like   a
[-----------------------------------------|
[-----------------------------------------|
[-----------------------------------------|
[-2--2-2--7--7-7--0--0-0--5--5-5--0-0-2-0-|
[-2--2-2--7--7-7--0--0-0--5--5-5--0-0-2-0-|
[-2--2-2--7--7-7--0--0-0--5--5-5--0-0-2-0-|
[
[-----------------------------------------|
[-----------------------------------------|
[-9--9-9--14--14-14--7--7-7--12--12-12----|
[-----------------------------------------|
[-7--7-7--12--12-12--5--5-5--10--10-10----|
[-----------------------------------------|

    torching       sun
[-----------------------------------------|
[-----------------------------------------|
[-----------------------------------------|
[-2--2-2--7--7-7--0--0-0--5--5-5--0-0-2-0-|
[-2--2-2--7--7-7--0--0-0--5--5-5--0-0-2-0-|
[-2--2-2--7--7-7--0--0-0--5--5-5--0-0-2-0-|
[
[-----------------------------------------[
[-----------------------------------------[
[-9--9-9--14--14-14--7--7-7--12--12-12----[
[-----------------------------------------[
[-7--7-7--12--12-12--5--5-5--10--10-10----[
[-----------------------------------------[

Verse (clean)

could sleep forever
-------------------|
-------------------|
-----------------5-|
-2--2-2--7--7-7--5-|
-2--2-2--7--7-7--3-|
-2--2-2--7--7-7----|

in spite of this look
-------------------|
-------------------|
-----------------5-|
-2--2-2--7--7-7--5-|
-2--2-2--7--7-7--3-|
-2--2-2--7--7-7----|

a look so scared
-------------------|
-------------------|
-----------------5-|
-2--2-2--7--7-7--5-|
-2--2-2--7--7-7--3-|
-2--2-2--7--7-7----|

sitting her with nothing
-------------------|
-------------------|
-----------------5-|
-2--2-2--7--7-7--5-|
-2--2-2--7--7-7--3-|
-2--2-2--7--7-7----|

new to add
-------------------|
-------------------|
-----------------5-|
-2--2-2--7--7-7--5-|
-2--2-2--7--7-7--3-|
-2--2-2--7--7-7----|

and crying out you never seemed forced
-------------------|
-------------------|
-----------------5-|
-2--2-2--7--7-7--5-|
-2--2-2--7--7-7--3-|
-2--2-2--7--7-7----|

it's just the kind of fuel I need
-------------------|
-------------------|
-----------------5-|
-2--2-2--7--7-7--5-|
-2--2-2--7--7-7--3-|
-2--2-2--7--7-7----|

to feel reborn
-------------------[
-------------------[
-----------------5-[
-2--2-2--7--7-7--5-[
-2--2-2--7--7-7--3-[
-2--2-2--7--7-7----[

pre chorus

 feeding off the chase right before is like biting into ankles pulling round
----------------------------------------------------------------------------|
----------------------------------------------------------------------------|
----------------------------------------------------------------------------|
-9-9-9-9-9-9-9-9-9-9-9-9-9-9-11-12-0-9-9-9-9-9-9-9-9-9-9-9-9-9-9-11-12-11-2-|
-9-9-9-9-9-9-9-9-9-9-9-9-9-9-11-12-0-9-9-9-9-9-9-9-9-9-9-9-9-9-9-11-12-11-2-|
-9-9-9-9-9-9-9-9-9-9-9-9-9-9-11-12-0-9-9-9-9-9-9-9-9-9-9-9-9-9-9-11-12-11-2-|

to finish one more phrase                         when all
----------------------------------------------------------------|
----------------------------------------------------------------|
----------------------------------------------------------------|
-9-9-9-9-9-9-9-9-9-9-9-9-9-9-11-12-0-x-x--x-x-x-x-9-9-9-9-9-9-9-|
-9-9-9-9-9-9-9-9-9-9-9-9-9-9-11-12-0-x-x--x-x-x-x-9-9-9-9-9-9-9-|
-9-9-9-9-9-9-9-9-9-9-9-9-9-9-11-12-0-x-x--x-x-x-x-9-9-9-9-9-9-9-|

 will fall
--------------------------[
--------------------------[
--------------------------[
-9-9-9-9-9-9-9-11-12-11-2-[
-9-9-9-9-9-9-9-11-12-11-2-[
-9-9-9-9-9-9-9-11-12-11-2-[

chorus

so         drawing           into
-----------------------------------------|
-----------------------------------------|
-----------------------------------------|
-2--2-2--7--7-7--0--0-0--5--5-5--0-0-2-0-|
-2--2-2--7--7-7--0--0-0--5--5-5--0-0-2-0-|
-2--2-2--7--7-7--0--0-0--5--5-5--0-0-2-0-|

one     another     keeps momentum
-----------------------------------------|
-----------------------------------------|
-----------------------------------------|
-2--2-2--7--7-7--0--0-0--5--5-5--0-0-2-0-|
-2--2-2--7--7-7--0--0-0--5--5-5--0-0-2-0-|
-2--2-2--7--7-7--0--0-0--5--5-5--0-0-2-0-|

  driving     forward  like   a
[-----------------------------------------|
[-----------------------------------------|
[-----------------------------------------|
[-2--2-2--7--7-7--0--0-0--5--5-5--0-0-2-0-|
[-2--2-2--7--7-7--0--0-0--5--5-5--0-0-2-0-|
[-2--2-2--7--7-7--0--0-0--5--5-5--0-0-2-0-|
[
[-----------------------------------------|
[-----------------------------------------|
[-9--9-9--14--14-14--7--7-7--12--12-12----|
[-----------------------------------------|
[-7--7-7--12--12-12--5--5-5--10--10-10----|
[-----------------------------------------|

    torching
[----------------[
[----------------[
[----------------[
[-2--2-2--7--7-7-[
[-2--2-2--7--7-7-[
[-2--2-2--7--7-7-[
[                [
[----------------[
[----------------[
[-9--9-9--14--14-[
[----------------[
[-7--7-7--12--12-[
[----------------[

interlude

-12-12-12-12-12-12-12-12-12-12-12-12-12-12--15-15-15-15-15-15-15-15-15-15-|
--------------------------------------------------------------------------|
-9--9--9--9--9--9--9--9--9--9--9--9--9---9--12-12-12-12-12-12-12-12-12-12-|
--------------------------------------------------------------------------|
--------------------------------------------------------------------------|
--------------------------------------------------------------------------|

-15-15-15-15-12-12-12-12-12-12-12-12-12-12-12-12-12-12-17-17-17-17-17-17-17-|
----------------------------------------------------------------------------|
-12-12-12-12-9--9--9--9--9--9--9--9--9--9--9--9--9--9--14-14-14-14-14-14-14-|
----------------------------------------------------------------------------|
----------------------------------------------------------------------------|
----------------------------------------------------------------------------|

-17-17-17-17-17-17-17-|
----------------------|
-14-14-14-14-14-14-14-|
----------------------|
----------------------|
----------------------|


 learn to       choose to      breath then    stitch your arm to me
-----------------------------------------------------------------------|
-----------------------------------------------------------------------|
----------------------------------------------12-12-12-12-12-7-7-7-7-7-|
-3-2--2--2-0-2--3-2--2--2-0-2--3-2--2--2-0-2---------------------------|
-3-2--2--2-0-2--3-2--2--2-0-2--3-2--2--2-0-2--10-10-10-10-10-5-5-5-5-5-|
-3-2--2--2-0-2--3-2--2--2-0-2--3-2--2--2-0-2---------------------------|

  learn to       choose to      breath then    stitch your arm to me
-----------------------------------------------------------------------|
-----------------------------------------------------------------------|
----------------------------------------------12-12-12-12-12-7-7-7-7-7-|
-3-2--2--2-0-2--3-2--2--2-0-2--3-2--2--2-0-2---------------------------|
-3-2--2--2-0-2--3-2--2--2-0-2--3-2--2--2-0-2--10-10-10-10-10-5-5-5-5-5-|
-3-2--2--2-0-2--3-2--2--2-0-2--3-2--2--2-0-2---------------------------|

  learn to       choose to      breath then    stitch your arm to me
-----------------------------------------------------------------------|
-----------------------------------------------------------------------|
----------------------------------------------12-12-12-12-12-7-7-7-7-7-|
-3-2--2--2-0-2--3-2--2--2-0-2--3-2--2--2-0-2---------------------------|
-3-2--2--2-0-2--3-2--2--2-0-2--3-2--2--2-0-2--10-10-10-10-10-5-5-5-5-5-|
-3-2--2--2-0-2--3-2--2--2-0-2--3-2--2--2-0-2---------------------------|

  learn to       choose to      breath then    stitch your arm
---------------------------------------------------------------[
---------------------------------------------------------------[
----------------------------------------------12-12-12-12-12-7-[
-3-2--2--2-0-2--3-2--2--2-0-2--3-2--2--2-0-2-------------------[
-3-2--2--2-0-2--3-2--2--2-0-2--3-2--2--2-0-2--10-10-10-10-10-5-[
-3-2--2--2-0-2--3-2--2--2-0-2--3-2--2--2-0-2-------------------[

chorus

so         drawing           into
-----------------------------------------|
-----------------------------------------|
-----------------------------------------|
-2--2-2--7--7-7--0--0-0--5--5-5--0-0-2-0-|
-2--2-2--7--7-7--0--0-0--5--5-5--0-0-2-0-|
-2--2-2--7--7-7--0--0-0--5--5-5--0-0-2-0-|

one     another     keeps momentum
-----------------------------------------|
-----------------------------------------|
-----------------------------------------|
-2--2-2--7--7-7--0--0-0--5--5-5--0-0-2-0-|
-2--2-2--7--7-7--0--0-0--5--5-5--0-0-2-0-|
-2--2-2--7--7-7--0--0-0--5--5-5--0-0-2-0-|

  driving     forward  like   a
[-----------------------------------------|
[-----------------------------------------|
[-----------------------------------------|
[-2--2-2--7--7-7--0--0-0--5--5-5--0-0-2-0-|
[-2--2-2--7--7-7--0--0-0--5--5-5--0-0-2-0-|
[-2--2-2--7--7-7--0--0-0--5--5-5--0-0-2-0-|
[
[-----------------------------------------|
[-----------------------------------------|
[-9--9-9--14--14-14--7--7-7--12--12-12----|
[-----------------------------------------|
[-7--7-7--12--12-12--5--5-5--10--10-10----|
[-----------------------------------------|

    torching       sun
[-----------------------------------------|
[-----------------------------------------|
[-----------------------------------------|
[-2--2-2--7--7-7--0--0-0--5--5-5--0-0-2-0-|
[-2--2-2--7--7-7--0--0-0--5--5-5--0-0-2-0-|
[-2--2-2--7--7-7--0--0-0--5--5-5--0-0-2-0-|
[
[-----------------------------------------|
[-----------------------------------------|
[-9--9-9--14--14-14--7--7-7--12--12-12----|
[-----------------------------------------|
[-7--7-7--12--12-12--5--5-5--10--10-10----|
[-----------------------------------------|


so         drawing           into
-----------------------------------------|
-----------------------------------------|
-----------------------------------------|
-2--2-2--7--7-7--0--0-0--5--5-5--0-0-2-0-|
-2--2-2--7--7-7--0--0-0--5--5-5--0-0-2-0-|
-2--2-2--7--7-7--0--0-0--5--5-5--0-0-2-0-|

one     another     keeps momentum
-----------------------------------------|
-----------------------------------------|
-----------------------------------------|
-2--2-2--7--7-7--0--0-0--5--5-5--0-0-2-0-|
-2--2-2--7--7-7--0--0-0--5--5-5--0-0-2-0-|
-2--2-2--7--7-7--0--0-0--5--5-5--0-0-2-0-|

  driving     forward  like   a
[-----------------------------------------|
[-----------------------------------------|
[-----------------------------------------|
[-2--2-2--7--7-7--0--0-0--5--5-5--0-0-2-0-|
[-2--2-2--7--7-7--0--0-0--5--5-5--0-0-2-0-|
[-2--2-2--7--7-7--0--0-0--5--5-5--0-0-2-0-|
[
[-----------------------------------------|
[-----------------------------------------|
[-9--9-9--14--14-14--7--7-7--12--12-12----|
[-----------------------------------------|
[-7--7-7--12--12-12--5--5-5--10--10-10----|
[-----------------------------------------|

    torching       sun
[-------------------------|
[-------------------------|
[-------------------------|
[-2--2-2--7--7-7--0--0-0--|
[-2--2-2--7--7-7--0--0-0--|
[-2--2-2--7--7-7--0--0-0--|





Comments


Popular Chevelle tabs & chords
Closure 2 Bass Tabs
Same Old Trip Bass Tabs
Vitamin R Leading Us Along Chords
The Red Drum Tabs
Bend The Bracket 2 Tabs
Humanoid Tabs
One Lonely Visitor 1 Tabs
Open 1 Tabs
Skeptic 1 Tabs
Panic Prone Ukulele


Song lyrics



↑ Back to top | Tablatures and chords are parodies/interpretations of the original songs. You may use it for private study, scholarship, research or language learning purposes only
© 2014 AZChords.com Contact us | Privacy policy | DMCA | Add/correct tabs | Request tabs | Top 50 tabs