>
 >
Zoot Suit Riot

Zoot Suit Riot Bass Tabs

Cherry Poppin Daddies - Zoot Suit Riot chords, tabs, tablatures, lyrics

Guitar lessons | Add/correct | Request | Top 50 tabs Artists:  A B C D E F G H I J K L M N O P Q R S T U V W X Y Z 0-9

Zoot Suit Riot Bass Tabs – Cherry Poppin Daddies

CD, Sheet music, Poster

Do you like Zoot Suit Riot? Share with your friends now
Bass Tabs

This songis mostly quarter notes like a lot of swing
basslines.

Tune your bass a Half Step Down so you 
you can play in flats.

Intro:
(6 measures drums)
                                        
Gb-----------4-4----------------------1---------------4-5------------------
Db-2-------2-------5\2-------5---1-2------1-------2-----6\2--------------
Ab-----0-3-------0-----3\0-3---0-------0------0-3-----------x-3-2-0-2-3--
Eb---4--------------------------------------4----------------------------

Gb----------
Db-2--------
Ab-----0/4--
Eb---4------

Verse:

Gb-------2---0----------------------1--------------2---0-------------------
Db-----2---2-----1-2--------------2-----2--------------------1-2-------------
Ab-0-3---------0-----0-3-2-0-2-3------------2-3---0---0-------3-2-0-2-3-
Eb---------------------------------------4--------------------0-----------

Gb---------
Db-2-------
Ab-----0---
Eb---4---2/

Pre-Chorus:

"fat cat"
                                

Gb-------9/10-9-7----7/-9-9-------------------------------------------------
Db-----7-----------10--------10-9---6--7---5--------------------------------6-
Ab-5-8----------------------------------0---0---7-8-5---0-3-4-5-x-0-5-5-7---
Eb-------------------------------------------------------0--------------------


Gb-------------------------
Db-6-7------------5/6-------
Ab-----0-5-6-6-7-----5-5/7-
Eb-------------------------

Chorus:

Gb-----------------------------------------------------------------------
Db-------2----------2--------1-2-----6------------2-----------2-----1-2-----
Ab-0-2-3-----0-2-3---0-2-3---------------0-2-3-----0---2-3-----0-----4---
Eb---------------------------------4-----4---------------------------------

Gb---2-------------------------------------------------------------------
Db-----2----------2---------2-----------0-2---6-----------2--------2---------
Ab-0-----3\0-2-3-----0-2-3-----0-2-3-------------0-2-3---0-2-3-----------
Eb---------------------------------------------4----4-------------------------



Gb------------2-----------4-4---------------5--------1---------------4-5-----
Db---1-2-------2-------2-------6\2----------5---1-2-----2-------2-----6\2-
Ab-0--------0-----3\0-3--------------3-0-3----0--------0----0/3-----------
Eb--------4----------------------------------------------4---------------


Gb---------------------------
Db-------5-------------------
Ab-3\--3---6-7-------0-0--0/-
Eb--------------4-5\1---------
                                
Outro:

Gb-----------------------------------------------------------------------
Db--7---7~---7/10---7--------------------------------------------------------
Ab-----------------------------------------------------------------------
Eb-5--5~---5----5/8----5------------------------------------------------------





Comments


Popular Cherry Poppin Daddies tabs & chords
Cherry Poppin' Daddy Strut Bass Tabs
Irish Whisky Bass Tabs
Jump In The Line (Intro) Tabs


Song lyrics



↑ Back to top | Tablatures and chords are parodies/interpretations of the original songs. You may use it for private study, scholarship, research or language learning purposes only
© 2014 AZChords.com Contact us | Privacy policy | DMCA | Add/correct tabs | Request tabs | Top 50 tabs