» » »

Cherry Poppin Daddies, Cherry Poppin' Daddy Strut Bass tabs (ver.1)

Artists:  A B C D E F G H I J K L M N O P Q R S T U V W X Y Z # 

Cherry Poppin' Daddy Strut Bass tabs (ver.1)

Cherry Poppin Daddies Tabs
 Rating:
4/5 (4 votes)
Cherry Poppin' Daddy Strut lessons Tabs too difficult? Try these video lessons and learn fast
1
                
Great song. Walking bass, swing feel, listen to the record for the timing... 


Intro:            
             
G|----------|--1-4-1-4-|--------|--------|----0-1-|2-------|--------|
D|--2-5-2-5-|2---------|3-------|--2-1-0-|--2-----|--------|--------|
A|3---------|----------|----3-5-|3-------|3-------|--0-2-3-|5-----2-|
E|----------|----------|--5-----|--------|--------|--------|--3-5---|

      
G|--------|------2---|--1-2-3-4-|--------|--------|--------|----0-1-|
D|----1-0-|--2-5---5-|2---------|3-------|--------|--------|--2-----|
A|--2-----|3---------|----------|----1-3-|--------|--------|3-------|
E|3-------|----------|----------|--4-----|44444444|44444444|--------|


G|2-------|--------|----------|--------|--------|
D|--5-3-2-|--------|----------|--------|--------|
A|--------|5-----2-|3-2-0-2-3-|5-----2-|3-----2-|
E|--------|--2-3---|----------|--2-3---|--3-5---|


Verse 1:
             
G|----------|--1-4-1-4-|--------|--------|----0-1-|2-------|--------|
D|--2-5-2-5-|2---------|3-------|--2-1---|--2-----|--------|--------|
A|3---------|----------|----3-5-|3-----5-|3-------|----2-3-|5-----2-|
E|----------|----------|--5-----|--------|--------|--5-----|--3-5---|

G|---------|----------|--1-2-3-4-|--------|--------|----0-1-|2-------|
D|----0-2-0|--2-5-2-5-|2---------|3-------|--------|--2-----|--5-3-2-|
A|--2------|3---------|----------|----3-5-|--------|3-------|--------|
E|3--------|----------|----------|--5-----|44444444|--------|--------|

G|--------|----------|--------|---------|--------|
D|--------|----------|--------|---------|--------|
A|5---0-2-|3-2---2-3-|5---0-2-|-3-3-3-3-|3-3-3-3-|
E|--3-----|----5-----|--3-----|---------|--------|


Chorus :

G|-------7----|-------7----|------------|------------|-------7----|
D|--7-10---10-|--7-10---10-|------------|------------|--7-10---10-|
A|8-----------|8-----------|--7-10-7-10-|--7-10-7-10-|8-----------|
E|------------|------------|8-----------|8-----------|------------|

G|-------7----|---------|---------|
D|--7-10---10-|---------|---------|
A|8-----------|-10--10--|10-------|
E|------------|---------|-----3333|



Verse 2:

G|------2---|--1-4-1-4-|--------|---------|----0-1-|2-------|------2-|
D|--2-5---5-|2---------|3-------|--2-5-2-5|--2-----|--5-3-2-|--4-5---|
A|3---------|----------|----3-5-|3--------|3-------|--------|5-------|
E|----------|----------|--5-----|---------|--------|--------|--------|

G|--------|------2---|--1-4-1-4-|--------|--------|--------|----0-1-|
D|5-3-2---|--2-5---5-|2---------|3-------|--------|--------|--2-----|
A|------5-|3---------|----------|----3-5-|--------|--------|3-------|
E|--------|----------|----------|--5-----|44444444|44444444|--------|

G|2-------|--------|----------|--------|---------|--------|
D|--5-3-2-|--------|----------|--------|---------|--------|
A|--------|5---0-2-|3-2---2-3-|5-----2-|-3-3-3-3-|3-3-3-3-|
E|--------|--3-----|----5-----|--2-3---|---------|--------|


Chorus :

G|-------7----|-------7----|------------|------------|-------7----|
D|--7-10---10-|--7-10---10-|------------|------------|--7-10---10-|
A|8-----------|8-----------|--7-10-7-10-|--7-10-7-10-|8-----------|
E|------------|------------|8-----------|8-----------|------------|

G|-------7----|---------|---------|
D|--7-10---10-|---------|---------|
A|8-----------|-10--10--|10-------|
E|------------|---------|-----3333|


Outro :
              
G|----------|--1-4-1-4-|--------|--------|----0-1-|2-------|--------|
D|--2-5-2-5-|2---------|3-------|--2-1---|--2-----|--------|--------|
A|3---------|----------|----3-5-|3-----5-|3-------|----2-3-|5---0-2-|
E|----------|----------|--5-----|--------|--------|--5-----|--3-----|

      
G|--------|------2---|--1-4-1-4-|--------|--------|--------|----0-1-|
D|----1-0-|--2-5---5-|2---------|3-------|--------|--------|--2-----|
A|--2-----|3---------|----------|----1-3-|--------|--------|3-------|
E|3-------|----------|----------|-4------|44444444|44444444|--------|


G|2-------|--------|----------|--------|--------|
D|--5-3-2-|------0-|----------|--------|--------|
A|--------|5---2---|3-2-0-2-3-|5---0-2-|3-------|
E|--------|--3-----|----------|--3-----|--------|
            
Submit corrections

comments powered by Disqus
↑ Back to top | Cherry Poppin Daddies Bass for Cherry Poppin' Daddy Strut. Lyrics for acoustic guitar and electric guitar. 1 Tablatures and chords are parodies/interpretations of the original songs. You may use it for private study, scholarship, research or language learning purposes only