» » »

Little Goodbye Tabs (ver.1)

Artists:  A B C D E F G H I J K L M N O P Q R S T U V W X Y Z # 

Little Goodbye Tabs (ver.1)

Chelsea Williams
Rating:
5/5 (1 vote)

Hard to play? Try these video lessons and learn fast.
                                                LITTLE GOODBYE
                              by Chelsea Williams
                       (From the Album CHELSEA WILLIAMS)


Standard tuning.  Original key has capo on first fret



Note: Play the tabs between these "repeat" bar symbols twice.

e||-------------||
b||-------------||
g||-------------||
d||-------------||
a||-------------||
E||-------------||


Left Hand Starting Position:
 Use the middle finger to press on the 3rd fret #2 string.
 Use the ring finger to press on the 4th fret #4 string.
 Index finger plays the other strings.


    Q=78
    Intro:
||----------------|---------------|-2-------------|-2---------------||
||--3-------3-----|-3-------3-----|---------3-----|---------3-------||
||------0-------0-|-----0-------0-|-----0-------0-|-----2-------2---||
||----4-------4---|---4-------4---|---4-------4---|---4-------4-----||
||----------------|---------------|-0-----0-------|-2-----2---------||
||--0-----0-------|-3-----3-------|---------------|-----------------||

   Verse:
              How light I felt
              that night drivin' up from L.A.
||----------------|---------------|-2-------------|-2---------------||
||--3-------3-----|-3-------3-----|---------3-----|---------3-------||
||------0-------0-|-----0-------0-|-----0-------0-|-----2-------2---||
||----4-------4---|---4-------4---|---4-------4---|---4-------4-----||
||----------------|---------------|-0-----0-------|-2-----2---------||
||--0-----0-------|-3-----3-------|---------------|-----------------||

               How quickly I was brought
               down by a little goodbye
||----------------|---------------|-2-------------|-2---------------||
||--3-------3-----|-3-------3-----|---------3-----|---------3-------||
||------0-------0-|-----0-------0-|-----0-------0-|-----2-------2---||
||----4-------4---|---4-------4---|---4-------4---|---4-------4-----||
||----------------|---------------|-0-----0-------|-2-----2---------||
||--0-----0-------|-3-----3-------|---------------|-----------------||

   Chorus:

            Noo... Don't you let her slip
            by without a sound
||----------------|---------------|-0-------------|-----------------||
||----------0-----|-3-------3-----|---------0-----|-0-------0-------||
||--0---0-------0-|-----0-------0-|-----0-------0-|-----0-------0---||
||----2-------2---|---0-------0---|---2-------2---|---0-------0-----||
||----------------|-2-----2-------|-3-----3-------|-----------------||
||--0-----0-------|---------------|---------------|-3-----3---------||

            Noo... it will be much better

|---------------|---------------|-0-------------|-----------------|
|---------0-----|-3-------3-----|---------0-----|-0-------0-------|
|-0---0-------0-|-----0-------0-|-----0-------0-|-----0-------0---|
|---2-------2---|---0-------0---|---2-------2---|---0-------0-----|
|---------------|-2-----2-------|-3-----3-------|-----------------|
|-0-----0-------|---------------|---------------|-3-----3---------|

            to fight one she couldn't bring down
                                                             D.C.
|---------------|---------------|-0-------------|-----------------*|
|---------0-----|-3-------3-----|---------0-----|-0-------0-------*|
|-0---0-------0-|-----0-------0-|-----0-------0-|-----0-------0---*|
|---2-------2---|---0-------0---|---2-------2---|---0-------0-----*|
|---------------|-2-----2-------|-3-----3-------|-----------------*|
|-0-----0-------|---------------|---------------|-3-----3---------*|

Repeat above tabs:

Ooohhh... oohhh...

My hurried mind
is quiet maybe just this one night
This isn't right
And no one saw it coming
up from behind

Noo... Don't you let her slip
Noo... it will be much better
to fight one she couldn't bring down


Outtro:

    Ooohhh...
    Ooohhh...
||----------------|---------------|-2-------------|-2---------------||
||--3-------3-----|-3-------3-----|---------3-----|---------3-------||
||------0-------0-|-----0-------0-|-----0-------0-|-----2-------2---||
||----4-------4---|---4-------4---|---4-------4---|---4-------4-----||
||----------------|---------------|-0-----0-------|-2-----2---------||
||--0-----0-------|-3-----3-------|---------------|-----------------||

    Ooohhh...
    Ooohhh...
||----------------|---------------|-2-------------|-2---------------||
||--3-------3-----|-3-------3-----|---------3-----|---------3-------||
||------0-------0-|-----0-------0-|-----0-------0-|-----2-------2---||
||----4-------4---|---4-------4---|---4-------4---|---4-------4-----||
||----------------|---------------|-0-----0-------|-2-----2---------||
||--0-----0-------|-3-----3-------|---------------|-----------------||


              How quickly I was brought
|---------------|---------------|-2-------------|-2---------------|
|-3-------3-----|-3-------3-----|---------3-----|---------3-------|
|-----0-------0-|-----0-------0-|-----0-------0-|-----2-------2---|
|---4-------4---|---4-------4---|---4-------4---|---4-------4-----|
|---------------|---------------|-0-----0-------|-2-----2---------|
|-0-----0-------|-3-----3-------|---------------|-----------------|


  down by a little goodbye
|--------------------------*|
|-3-------3----------^3----*|
|-----0-------0------^0----*|
|---4-------4--------^2----*|
|--------------------^2----*|
|-0-----0------------^0----*|


Words and Music by Chelsea Williams


Note:

1. For detaled playing instructions and timing, download the free Powertab version of 
Goodbye" uploaded with this tab.

2. Powertab runs only on Windows but Mac users can substitute "Tabview" here:

***************************************************************************************
***************************************************************************************
            
Hard to play? Try these video lessons and learn fast. | Correct




comments powered by Disqus
↑ Back to top | Tablatures and chords are parodies/interpretations of the original songs. You may use it for private study, scholarship, research or language learning purposes only