» » »

Chelsea Williams, Eight Days Tabs (ver.1)

Artists:  A B C D E F G H I J K L M N O P Q R S T U V W X Y Z # 

Eight Days Tabs (ver.1)

Chelsea Williams Tabs
 Rating:
4/5 (4 votes)
Eight Days lessons Tabs too difficult? Try these video lessons and learn fast
                           EIGHT DAYS
       by Chelsea Williams

(From the 2008 Album DECORATION AISLE)
Words and Music by Chelsea Williams
Arranged by Chelsea Williams
Copyright © 2008 Chelsea Williams


      C#m               G#               A              E
  4 4 6 6 5 4      4 6 6 5 4 4      5 7 7 6 5 5    0 2 2 1 0 0

     EVII
  x 7 9 9 9 7

----------------------------------
NOTES:

1. For detaled playing instructions and timing, download the
   free Powertab version of "Eigth Days" uploaded with this tab.
   (Powertab runs only on Windows but Mac users can substitute

2. Reference video of "Eight Days"
   (cut and paste to your browser)
----------------------------------

 Intro
  Q=180
  C#m                         C#m
                                                        3x
|-------------|-------------|-------------|--------------|
|----5-----5--|----5--------|----5-----5--|----5---------|
|----6-----6--|----6--------|----6-----6--|----6---------|
|----6-----6--|----6--------|----6-----6--|----6---------|
|-4-----------|-4-----------|-4-----------|-4------------|
|-------4-----|-------4--7--|-------4-----|-------4--7---|


  C#m   EVII    A     G#      C#m

|-------------|-------------|-------------|-----------|
|----5-----9--|----5-----4--|----5-----5--|-5----5----|
|----6-----9--|----6-----5--|----6-----6--|-6----6----|
|----6-----9--|----7-----6--|----6-----6--|-6----6----|
|-4-----7-----|-------------|-4-----------|-4----4----|
|-------------|-5-----4-----|-------4-----|-----------|


 Verse

  C#m                         G#
Eight days straight           Strapped down to a hospital Bed
|-------------|-------------|-------------|--------------|
|----5-----5--|----5-----5--|----4-----4--|----4-----4---|
|----6-----6--|----6-----6--|----5-----5--|----5-----5---|
|----6-----6--|----6-----6--|----6-----6--|----6-----6---|
|-4-----------|-4-----------|-------6-----|-------6------|
|-------4-----|-------4-----|-4-----------|-4------------|


  Q=180
  A                           E
  oh, When they brought you     home..
|-------------|-------------|-------------|--------------|
|----5-----5--|----5-----5--|----0-----0--|----0-----0---|
|----6-----6--|----6-----6--|----1-----1--|----1-----1---|
|----7-----7--|----7-----7--|----2-----2--|----2-----2---|
|-------7-----|-------7-----|-------2-----|-------2------|
|-5-----------|-5-----------|-0-----------|-0------------|


  A                           E
 ..wrote,  about a            brave young girl and the snake
                              that swallowed her
|-------------|-------------|-------------|--------------|
|----5-----5--|----5-----5--|----0-----0--|----0-----0---|
|----6-----6--|----6-----6--|----1-----1--|----1-----1---|
|----7-----7--|----7-----7--|----2-----2--|----2-----2---|
|-------7-----|-------7-----|-------2-----|-------2------|
|-5-----------|-5-----------|-0-----------|-0------------|


  G#                       C#m
  whole       (cluck)
|-------------|----------|-------------|--------------|
|----4-----4--|-4--------|----5-----5--|----5---------|
|----5-----5--|-5--------|----6-----6--|----6---------|
|----6-----6--|-6--------|----6-----6--|----6---------|
|-------6-----|----------|-4-----------|-4------------|
|-4-----------|-4--------|-------4-----|-------4--7---|


  C#m           C#m
                    (slam!)
|-------------|-----------|
|----5-----5--|-5----5----|
|----6-----6--|-6----6----|
|----6-----6--|-6----6----|
|-4-----------|-4----4----|
|-------4-----|-----------|


 Outro

  C#m                         C#m

|-------------|-------------|-------------|--------------|
|----5-----5--|----5--------|----5-----5--|----5---------|
|----6-----6--|----6--------|----6-----6--|----6---------|
|----6-----6--|----6--------|----6-----6--|----6---------|
|-4-----------|-4-----------|-4-----------|-4------------|
|-------4-----|-------4--7--|-------4-----|-------4--7---|


  C#m                         C#m                      C#m
                                                        let ring..
|-------------|-------------|-------------|----------|----------|--------*|
|----5-----9--|----5-----4--|----5-----5--|-5--------|-5--------|-(5)----*|
|----6-----9--|----6-----5--|----6-----6--|-6--------|-6--------|-(6)----*|
|----6-----9--|----7-----6--|----6-----6--|-6--------|-6--------|-(6)----*|
|-4-----7-----|-------------|-4-----------|-4--------|-4--------|-(4)----*|
|-------------|-5-----4-----|-------4-----|----------|----------|--------*|

***************************************************************************************
***************************************************************************************

C#m C#m C#m C#m C#m C#m
C#m E A G# C#m C#m

C#m
Eight days straight
G#
Strapped down to a hospital bed
           C#m
‘Cause you took spray paint
     G#
And scribbled Peace on the walls of the city
     C#m
When policemen came
      G#                                 A
Not a quiet surrender was what you gave, oh

                       E
When they brought you home
                     A
You tore off your clothes

      E
And danced in the garden
                     A
Singing halleluiah, oh
                       E
When they brought you home
                A
The poems you wrote
           E
About a brave young girl
                                  G# (cluck)
And the snake that swallowed her whole


C#m C#m C#m C#m (slam)


C#m
Your mother cried
G#
When you told her

You were Bernadette Peters
C#m
She was terrified
G#
Called me up pleaded

Won’t you come see her?
C#m
And upon arrival
    G#
You ran outside
                       A
To cartwheel down the drive

                       E
When they brought you home
                     A
You tore off your clothes
      E
And danced in the garden
                     A
Singing halleluiah, oh

                       E
When they brought you home
                A
The poems you wrote
           E
About a brave young girl
                                  G#  (cluck)
And the snake that swallowed her whole


C#m C#m C#m C#m C#m C#m
C#m E A G# C#m C#m

A                          E
Oh, When they brought you home
                     A
You tore off your clothes
      E
And danced in the garden
                     A
Singing halleluiah, oh

                       E
When they brought you home
                A
The poems you wrote
           E
About a brave young girl
                                  G#  (cluck)
And the snake that swallowed her whole

C#m C#m C#m C#m C#m C#m
C#m E A G# C#m C#m
            
Submit corrections

comments powered by Disqus
↑ Back to top | Chelsea Williams Tabs for Eight Days. Lyrics for acoustic guitar and electric guitar. Tablatures and chords are parodies/interpretations of the original songs. You may use it for private study, scholarship, research or language learning purposes only