» » »

Cheap Trick, Need Your Love Bass tabs (ver.1)

Artists:  A B C D E F G H I J K L M N O P Q R S T U V W X Y Z # 

Need Your Love Bass tabs (ver.1)

Cheap Trick Tabs
 Rating:
4/5 (4 votes)
Need Your Love lessons Tabs too difficult? Try these video lessons and learn fast
                #------------------------------------------------------------------------------##

key:  E
tuning: standard


intro

G----|------|-------|-----7-|-----7-9|--9-|-----------9-|-----7-|---7-9---|
D----|------|-------|---9---|-9-9----|--9-|-----------9-|---9---|-9-------|
A---7|-7-7-5|--5-5-7|-7-----|--------|--7-|-0-2-4-2-0-7-|-7-----|---------|
E----|------|-------|-------|--------|--0-|-----------0-|-------|---------|

(E)  (E)  (E)  (E)
(E)  (B)  (A)  (D)

verse 1

(E)Need your love need your love (B)need your love need your love(A)  (D)
(E)Fell apart broke my heart (B)need your love need your love(A) (D)
If I could (E)go around the world I wouldn'd (B)find another girl need your
love (A) (D)
(E)Need your love need your love (B)need your love need your love (A) (D)

verse 2

G-------------------------------------------------------------------------|
D-------------------------------------------------------------------------|
A-------------------------------------------------------------------------|
E-----5--------5--------5--------5--------5--------5--------5-------------|
 You made me lonely why should you care I give you everything that's only

G---------------------------------------------------------------------------|
D---------------------------------------------------------------------------|
A---------------------------------------------------------------------------|
E---5-0-3-0-7---7\\\\\\\\\5-------5----------3-5-----5------5---------------|
    fair   I give you lovin It's what you need   I give you everything

G---------------------------------------------------------------------------|
D---------------------------------------------------------------------------|
A---------------------------------------------------------------------------|
E-------5--------5-0-3-0-7----7--------------8------------------------------|
  everything in me       If I surprise you that's not the reason


verse 1

verse 2

bridge

(A)  (G)   (A)  (G)  (A)  (G)  (A)  (G)
(D)  (C)   (D)  (C)  (E)  (D)  (E)  (D)
(A)  (G)  (F#)  (F)

verse 1

interlude

(E)need your love   need your love

guitar solo

G---------------------------------------|
D---------------------------------------|      repeat this as necessary
A---------------------------------------|      it will change to an open E
E--0-0-0-0-0-0-0-0----0-0-0-0-0-3-2-0---|      after the fast solo section

outro

(E)  (B) (A)  (G)  (E)  (B)  (A)  (G)

G---------------------------------------------------------------7--------|
D---------------------------------------------------------------7--------|
A--------------2-------4-------5--------7-------2-------4-------5--------|
E-0-0----0-0-0---0-0-0---0-0-0----0-0-0---0-0-0---0-0-0---0-0-0----------|

G----------------------------------9-9-9-9-9-9-9-9-9-9-9-9-9-9-9-9-9-9---|
D----------------------------------9-9-9-9-9-9-9-9-9-9-9-9-9-9-9-9-9-9---|
A----------------------------------7-7-7-7-7-7-7-7-7-7-7-7-7-7-7-7-7-7---|
E----------------------------------0-0-0-0-0-0-0-0-0-0-0-0-0-0-0-0-0-0---|
    Need... your.... ......love


                          -I'm here, I'm queer, I wish Santa would bring
                                 me a 12-string Hamer long scale bass!
            
Submit corrections

comments powered by Disqus
↑ Back to top | Cheap Trick Bass for Need Your Love. Lyrics for acoustic guitar and electric guitar. Tablatures and chords are parodies/interpretations of the original songs. You may use it for private study, scholarship, research or language learning purposes only