>
 >
Mandocello

Mandocello Bass Tabs

Cheap Trick - Mandocello chords, tabs, tablatures, lyrics

Guitar lessons | Add/correct | Request | Top 50 tabs Artists:  A B C D E F G H I J K L M N O P Q R S T U V W X Y Z 0-9

Mandocello Bass Tabs – Cheap Trick

CD, Sheet music, Poster

Do you like Mandocello? Share with your friends now
Bass TabsTabs
Title        : Mandocello
Artist/Group : Cheap Trick     Album : Authorized Greatest Hits
Info         : 4 String Standard Bass 
Created by   : Ken Robertson
 
 
 
                                                                     
G---------------------|---------------------|---------------------||-
D---------------------|---------------------|---------------------||-
A---3-0-2-0-3-3-0-2-0-|-3-0-2-0-3-3-0-2-0---|-3-0-2-0-3-3-0-2-0-2-||-
E---------------------|-------------------3-|---------------------||-
                                                                     
 
 
 
                                                                           
G-----------------------|---------------------------|---------------------||-
D-----------------------|---2-3-----2-3-----2-3-----|---------------------||-
A---3-0-2-0-3-3-0-2-0---|-1-------0-----------------|-3-0-2-0-3-3-0-2-0-2-||-
E---------------------3-|-----------------4-------3-|---------------------||-
                                                                           
 
 
 
                                                                    
G-----------------------|---------------------|---------------------------||-
D-----------------------|---------------------|---2-3-----2-3-----2-3-----||-
A---3-0-2-0-3-3-0-2-0-2-|-3-0-2-0-3-3-0-2-0---|-1-------0-----------------||-
E-----------------------|-------------------3-|-----------------4-------3-||-




G---------------------|--------|---------------------|----------||-
D---------------------|--------|---------------------|----------||-
A---3-0-2-0-3-3-0-2-0-|-6-10\7-|-3-0-2-0-3-3-0-2-0-2-|-6-10\7-1-||-
E---------------------|--------|---------------------|----------||-




G-----------------------|---------------------|---------------------||-
D-----------------------|---------------------|---------------------||-
A---3-0-2-0-3-3-0-2-0-2-|-3-0-2-0-3-3-0-2-0---|-3-0-2-0-3-3-0-2-0---||-
E-----------------------|-------------------3-|-------------------3-||-




G--------------------------|---------------------|---------------------||-
D-----2-3----2-3----2-3----|---------------------|---------------------||-
A---1------0---------------|-3-0-2-0-3-3-0-2-0---|-3-0-2-0-3-3-0-2-0-2-||-
E-----------------4------3-|-------------------3-|---------------------||-




G-----------------------|------------------------|-------------------||-
D-----------------------|---2-3----2-3----2-3----|-------------------||-
A---3-0-2-0-3-3-0-2-0---|-1------0---------------|-3-0-2-0-3-3-0-2-0-||-
E---------------------3-|---------------4------3-|-------------------||-




G------------|---------------------|---------------------------------||-
D------------|---------------------|---------------------------------||-
A---6-10\7-1-|-3-0-2-0-3-3-0-2-0-2-|-1-1-1-1-1-1-1-1-1-1-1-1-1-1-0-0-||-
E------------|---------------------|---------------------------------||-




G---------------------------------|---------------------------------||-
D---------------------------------|---------------------------------||-
A---------------------------------|-1-1-1-1-1-1-1-1-1-1-1-1-1-1-0-0-||-
E---3-3-3-3-3-3-3-3-3-3-3-3-3-3-1-|---------------------------------||-




G---------------------------------|---------------------||-
D-------------------------------3-|---------------------||-
A---------------------------------|-3-0-2-0-3-3-0-2-0-2-||-
E---3-3-3-3-3-3-3-3-3-3-3-3-3-3---|---------------------||-




G-----------------------|---------------------------|---------------------||-
D-----------------------|---2-3-----2-3-----2-3-----|---------------------||-
A---3-0-2-0-3-3-0-2-0-3-|-1-------0-----------------|-3-0-2-0-3-3-0-2-0---||-
E-----------------------|-----------------4-------3-|-------------------3-||-




G-----------------------|---------------------------|---------------------||-
D-----------------------|---2-3-----2-3-----2-3-----|---------------------||-
A---3-0-2-0-3-3-0-2-0---|-1-------0-----------------|-3-0-2-0-3-3-0-2-0---||-
E---------------------3-|-----------------4-------3-|-------------------3-||-




G-----------------------------------|--------------------------------||-
D-----------------------------------|--------------------------------||-
A---3-3-3-3-1-1-1-1---------3-3-3-3-|0-0-0-0-------------------------||-
E-------------------4-4-4-4---------|--------3-3-3-3-1-1-1-1-0-0-0-0-||-




G-----------------------------------|---------------------------------||-
D-----------------------------------|---------------------------------||-
A---0-0-0-0-1-1-1-1-0-0-0-0-1-1-1-1-|-3-3-3-3-1-1-1-1---------3-3-3---||-
E-----------------------------------|-----------------4-4-4-4-------3-||-




G-----------------------|---------------------|---------------------------||-
D-----------------------|---------------------|---2-3-----2-3-----2-3-----||-
A---3-0-2-0-3-3-0-2-0-2-|-3-0-2-0-3-3-0-2-0---|-1-------0-----------------||-
E-----------------------|-------------------3-|-----------------4-------3-||-




G-------------|---------------------------|-----------||-
D-------------|---2-3-----2-3-----2-3-----|-----------||-
A---3-0-2-0---|-1-------0-----------------|-3-0-2-0---||-
E-----------3-|-----------------4-------3-|---------3-||-




G-----------------------------|-----------------------------------||-
D-----2-3-----2-3-----2-3-----|---2-3-----2-3-----2-3-----2-3-----||-
A---1-------0-----------------|-1-------0-----------------------3-||-
E-------------------4-------3-|-----------------4-------3---------||-



                                                                    
 
 
 

 
 
 
TABS READING GUIDE:
Note Length (above the bass line):w=whole, h=1/2, q=1/4, e=1/8, s=1/16, t=1/32, .=1.5*previous.
Fingering (below the bass line):1=index, 2=middle, 3=ring, 4=pinkie, 5=thumb.
Special Note Symbols:
   h    = hammer-on from previous note
   p    = pull off from previous note
   /or\ = slide up or down to note
   b    = bend note
   S    = slap the note with the right-hand thumb (left hand if left-handed)
   P    = pop the note with the right hand (left hand if left-handed)
   t    = tap the note with the right hand (left hand if left-handed)
   H    = harmonic
   x    = muted note
   r    = a rest.





Comments


Popular Cheap Trick tabs & chords
Auf Wiedersehen Bass Tabs
How Are You? Chords
Mighty Wings Chords
He's A Whore Tabs
Hello There 1 Tabs
Lookin' Out For Number One Tabs
Need Your Love Tabs
Surrender Tabs
That 70s Show Theme 1 Tabs
The House Is Rockin Intro Tabs


Song lyrics



↑ Back to top | Tablatures and chords are parodies/interpretations of the original songs. You may use it for private study, scholarship, research or language learning purposes only
© 2014 AZChords.com Contact us | Privacy policy | DMCA | Add/correct tabs | Request tabs | Top 50 tabs