» » »

Cheap Trick, I Know What I Want Tabs (ver.3)

Artists:  A B C D E F G H I J K L M N O P Q R S T U V W X Y Z # 

I Know What I Want Tabs (ver.3)

Cheap Trick Tabs
 Rating:
4/5 (4 votes)
I Know What I Want lessons Tabs too difficult? Try these video lessons and learn fast
1
                I Know What I Want – Cheap Trick


Note: This song's easy enough as long as you are able to listen to it.
I couldn't get the solo's tabbed note for note, but I have where they start so just be 
in coming out of them.
I hope you have as much fun listening (and playing) to Cheap Trick as I do!

Intro : B E---   B E---   A E---   A E---   B E---   B E---    A------

------------------------------------------------------------|
------------------------------------------------------------|
------------------------------------------------------------|
------------------------------------------------------------|       x2
---2-----slide-----7~---------------------------------------|
------------------------------------------------------------|

Verse: Bx8   Ex8   (Do this progression 4 times and palm mute it.)

Chorus:  B B B E---  B B B E---|
         A A A E---  A A A E---|
         B B B E---  B B B E---|

Post Chorus:   A D---   A D---

-----------------------------------------------|
-----------------------------------------------|
-----------------------------------------------|
-----------------------------------------------|       x2
--2----slide------7~---------------------------|
-----------------------------------------------|

Repeat Verse

Repeat Chorus

Bridge:

--------------------|
-2-2----2-2---2-----|
-2-2----2-2---2-----|
-2-2----2-2---2-----|   repeat pattern sliding up to B, then D, then E
-0-0----0-0---0-----|
--------------------|

Then :   A E G---   A E G---

Solo  1 :
------------------------------------|
------------------------------------|
------------------------------------|
5~--4-5-4-5-4-5-4-5b7---------------|
-----------------------5~-----------|
------------------------------------|

----------------------------------|
----------------------------------|
----------------------------------|
5~--4-5-4-5-4-5s7~~~--------------|
----------------------------------|
----------------------------------|

--------------------------------------|
8~-7-8-7-8-7-8-7-8b10---5~~-----------|
--------------------------------------|
--------------------------------------|
--------------------------------------|
--------------------------------------|

----------------------------------------|
8~-7------------------------------------|then come out of solo any way you want…
----------------------------------------|
----------------------------------------|
----------------------------------------|
----------------------------------------|

Then:

----------------------------------------|
----------------------------------------|
----------------------------------------|
----------------------------------------|     x4
---2----slide-----7~--------------------|
----------------------------------------|


Repeat Verse (x8 instead of x4)

Chorus

Post Chorus

Then:  B E---  B E---  A E--- A E---

Solo 2 begins with :
--------------------------------|
--------15----------------------|
12-------------------------14---| then do something to come out of the solo
------------------12------------|
--------------------------------|
--------------------------------|The chorus then fades out and the song ends.
            
Submit corrections

comments powered by Disqus
↑ Back to top | Cheap Trick Tabs for I Know What I Want. Lyrics for acoustic guitar and electric guitar. 1 Tablatures and chords are parodies/interpretations of the original songs. You may use it for private study, scholarship, research or language learning purposes only