» » »

I Know What I Want Tabs (ver.1)

Artists:  A B C D E F G H I J K L M N O P Q R S T U V W X Y Z # 

I Know What I Want Tabs (ver.1)

Cheap Trick
Rating:
4/5 (1 vote)

Hard to play? Try these video lessons and learn fast.
                -----------------------------------------------------------------------------

Tuning:standard

      intro:
e|---------------------------------------------------------------------------|
B|---------------------------------------------------------------------------|
G|--4------------4-----------2-----------2-----------------------------------|
D|--4------2-----4----2------2-----2-----2-----2-----------------------------|
A|--2------2-----2----2------0-----2-----0-----2-----------------------------|
E|---------0----------0------------0-----------0-----------------------------|

e|---------------------------------------------------------------------------|
B|---------------------------------------------------------------------------|
G|--4------------4-----------2---------------7/9---------7/9-----------------|
D|--4------2-----4----2------2----------7/9---------7/9----------------------|
A|--2------2-----2----2------0-----------------------------------------------|
E|---------0----------0------------------------------------------------------|

    verse
e|---------------------------------------------------------------------------|
B|---------------------------------------------------------------------------|
G|---4-4-4-4-4-4-4-4---------------------------------------------------------|
D|---4-4-4-4-4-4-4-4--2-2-2-2-2-2-2-2-----x4---------------------------------|
A|---2-2-2-2-2-2-2-2--2-2-2-2-2-2-2-2----------------------------------------|
E|--------------------0-0-0-0-0-0-0-0----------------------------------------|

          chorus
e|---------------------------------------------------------------------------|
B|---------------------------------------------------------------------------|
G|--4------------4-----------2-----------2-----------------------------------|
D|--4------2-----4----2------2-----2-----2-----2-----------------------------|
A|--2------2-----2----2------0-----2-----0-----2-----------------------------|
E|---------0----------0------------0-----------0-----------------------------|

e|---------------------------------------------------------------------------|
B|---------------------------------------------------------------------------|
G|--4------------4-----------2----2-----------7/9---------7/9----------------|
D|--4------2-----4----2------2----2------7/9---------7/9---------------------|
A|--2------2-----2----2------0----0------------------------------------------|
E|---------0----------0------------------------------------------------------|
            
Hard to play? Try these video lessons and learn fast. | Correct




comments powered by Disqus
↑ Back to top | Tablatures and chords are parodies/interpretations of the original songs. You may use it for private study, scholarship, research or language learning purposes only