» » »

Cheap Trick, If You Want My Love Tabs (ver.1)

Artists:  A B C D E F G H I J K L M N O P Q R S T U V W X Y Z # 

If You Want My Love Tabs (ver.1)

Cheap Trick Tabs
 Rating:
4.3/5 (6 votes)
If You Want My Love lessons Tabs too difficult? Try these video lessons and learn fast
1
                 

Intro:

Esus4         E
Ah ___ Ah ___ Ah   Ah ___      

e----------------------
B----------------------
G----------------------
D----------------------
A--4\2-------0h2-------                               
E-------5\4-------0----


Esus4         E
Ah ___ Ah ___ Ah   Ah ___


Chorus:
        E                A
If you want my love you got it.
         C#m              F#
When you need my love you got it.
         A
I won't hide it.
          B              E    
I won't throw your love away, oo.

        E                A
If you want my love you got it.
         C#m              F#
When you need my love you got it.
         A
I won't hide it.
          B              E
I won't throw your love away, oo.


Verse 1:
Em                          C
Yes, I thought you were a mystery girl, 
Em                       C
A special girl in this crazy old world.
Am                       C               Em   C
You couldn't see me when I laid eyes on you.
        Em        D      C#m
'Cause lonely is only a place.
           Am             G
You don't know what it's like...
            F#
You can't fight it.
        Dm          C            B
It's a hole in my heart, in my heart.


Chorus:
        E                A
If you want my love you got it.
          C#m              F#
When you need my love you got it.
         A
I won't hide it.
          B              E
I won't throw your love away, oo.


Guitar Solo:

e-------------------------------------------------------------
B-------------------------------------------------------------
G-------------------------------------------------------------
D-------------------------------------------------------------
A--7/9-11--12-11---7-4-7---7/9-11-12-11-11-11\9---7/9-11-12---
E-------------------------------------------------------------
                      
                         (harmonics)
e-----------------------------12---
B--------------------------12------
G----------------------------------
D----------------------------------
A--7/9-11-12-11-11-11\7------------
E----------------------------------


Verse 2:
Em                       C
You hold the secrets of love in this world.
Em                      C
I'm hypnotized by your ev'ry word.
Am                          C
A special face, a special voice,
                       Em     C
A special smile in my life.

        Em        D      C#m
'Cause lonely is only a place.
           Am             G
You don't know what it's like...
            F#
You can't fight it.
        Dm          C            B
It's a hole in my heart, in my heart.


Repeat chorus three times


Chords:

E      022100
Esus4  022200
A      x02220
C#m    x46654
F#     xx4322
B      xx4442
Em     022000
D      xx0232
C      x32010
Am     x02210
G      320003
Dm     xx0231
            
Submit corrections

comments powered by Disqus
↑ Back to top | Cheap Trick Tabs for If You Want My Love. Lyrics for acoustic guitar and electric guitar. 1 Tablatures and chords are parodies/interpretations of the original songs. You may use it for private study, scholarship, research or language learning purposes only