» » »

If You Want My Love Bass tabs (ver.1)

Artists:  A B C D E F G H I J K L M N O P Q R S T U V W X Y Z # 

If You Want My Love Bass tabs (ver.1)

Cheap Trick
Rating:
0/5 (0 votes)

Hard to play? Try these video lessons and learn fast.
                YEAR: 1982
TRACK #: 3
BASS TAB
STANDARD EADG TUNING

*SYMBOLS*
 ~~~~~ = LET NOTE RING

*INTRO* STARTS AT - 0:00
G ----------------|
D ----------------| X2
A ----------------|
E 0---0---0---0---|

*CHORUS* STARTS AT - 0:16
G -------------------------------------------------|
D -------------------------------------------------| X2
A ------------4-4--4-------------------------------|
E 0-00-05-5-5-------22-2-5-55-5-57-7-7-7-0-0--0-0--|

*1ST VERSE* STARTS AT - :50
G ----------------------------------------------------------------------------|
D -----------------2-----------------2----------------------------------------|
A ---------3-3-3-35----------3-3-3-35-------------------6---------------------|
E 0-0-0-023---------0-0-0-023---------5-5-5-578-7-7-7-79--0-0-0-023-0-0-0-023-|

G ------------------------------------------------------------|
D ------------------------------------------------------------|
A ------5~~~~~-4~~~~~---------------------5~~~~~-3~~~~~2~~~~~-|
E 0~~~~~--------------5~~~~~-3~~~~~-2~~~~~--------------------|

*CHORUS* STARTS AT - 1:28
G ------------------------------------------------|
D ------------------------------------------------|
A -----------4-4--4-------------------------------|
E 0-00-05-5-5-------22-2-5-55-5-57-7-7-7-0-0--0-0-|

*GUITAR SOLO* STARTS AT - 1:44
G ------------------------------------------------|
D ------------------------------------------------|
A -----------4-4--4-------------------------------|
E 0-00-05-5-5-------22-2-5-55-5-57-7-7-7-0-0--0-0-|

*2ND VERSE* STARTS AT - 2:01
G ---------------------------------------------------------------------------|
D -----------------2-----------------2---------------------------------------|
A ---------3-3-3-35----------3-3-3-35-------------------6--------------------|
E 0-0-0-023---------0-0-0-023---------5-5-5-578-7-7-7-79-0-0-0-023-0-0-0-023-|

G --------------------------------------------------------------|
D --------------------------------------------------------------|
A ------5~~~~~-4~~~~~----------------------5~~~~~-3~~~~~-2~~~~~-|
E 0~~~~~--------------5~~~~~-3~~~~~-2~~~~~----------------------|

*CHORUS* STARTS AT - 2:38
G -------------------------------------------------|
D -------------------------------------------------| X3
A -----------4-4--4--------------------------------|
E 0-00-05-5-5-------22-2-5-55-5-57-7-7-7-0-0--0-0--|

*ENDING* ENDS AT - 3:33
G --
D --
A --
E -0


THE END
            
Hard to play? Try these video lessons and learn fast. | Correct




comments powered by Disqus
↑ Back to top | Tablatures and chords are parodies/interpretations of the original songs. You may use it for private study, scholarship, research or language learning purposes only