>
 >
High Roller 1

High Roller 1 Guitar Tabs

Cheap Trick - High Roller 1 chords, tabs, tablatures, lyrics

Guitar lessons | Add/correct | Request | Top 50 tabs Artists:  A B C D E F G H I J K L M N O P Q R S T U V W X Y Z 0-9

High Roller 1 Guitar Tabs – Cheap Trick

CD, Sheet music, Poster

Do you like High Roller 1? Share with your friends now
Bass TabsTabsTabs v2
key:  A
tuning:  standard E A D G


intro

G---------------------------------------------------------------------
D----------------------------------------------------------------------
A--0-0-0-0-0-0-0-0-0-0-0-0-0-0-0-0-0-0-0-0-0-0-0-0-0-0-0-0-0-----------
E------------------------------------------------------------0-3-5-0---

verse

G----------------------------
D-----------------------------
A---5-5-5-3----5-5-5-3--------   play it 5 times for the first verse
E------------0---------0-3-5-5           3 times for the second verse 

verse

chorus

G--------------------------------------------------
D----------------------------------------------------
A--------------------------------------------------
E--7-7-7-7-7-7-7-7-7-7-7-7/19\7-0-0-0-0-0-0-0-0-0-
   High_____________            Roller

   What I (A)buy is mine and I always get the things that I (B)choose
   My my (D)my such a high high (E)roller
  
third verse  (play riff four times)

chorus

post chorus

 (E)I know he's gone away and left you I'll take real good care of you


verse  (play riff 4 times)


bridge

(E)Is that you?  (D)I knew you'd be (D#) here tonight and (E)I'll
   make it all right (F#)
   (D)I'll take (E)real good care of you

G---------------------------------
D-------0---0---------------------
A-----0---0-------------------------
E --------------5-3-2-0------------

(D)I'll tuck you (D#)in tonight and (E)I'll make it all (F#)right


post chorus

verse riff to end



Jump in my love car don't have to go very far
Just far enough to show you a thing or two

I can really swing the best of everything
And I want to have a thing with you

High roller what I buy is mine and I always get the things that I choose
My my my such a high roller 

I'm in the mood for love You're all I'm thinking of
I'll make you feel all right when we're alone

High roller what I buy is mine and I always get the things that I choose
My my my such a high roller

I know he's gone away and left you I'll take real good care of you

I can really swing the best of everything And I want to have a thing with you

Is that you?  I knew you'd be here tonight and I'll make it all right
I'll tkae real good care of you
I'll tuck you in tonight and I'll make it all right 

I know he's gone away and left you I'll take real good care of you


         -I'm here, I'm queer, I play 5-string bass





Comments


Popular Cheap Trick tabs & chords
That 70s Show Theme Bass Tabs
That 70s Show Theme 2 Bass Tabs
Heavens Falling Chords
On The Radio Tabs
One On One Tabs
Surrender 2 Tabs
I Cant Take It Ukulele
Lookin Out For Number One Ukulele
Say Goodbye Ukulele
Wherever Would I Be Without You Ukulele


Song lyrics



↑ Back to top | Tablatures and chords are parodies/interpretations of the original songs. You may use it for private study, scholarship, research or language learning purposes only
© 2014 AZChords.com Contact us | Privacy policy | DMCA | Add/correct tabs | Request tabs | Top 50 tabs