» » »

Ghost Town Tabs (ver.1)

Artists:  A B C D E F G H I J K L M N O P Q R S T U V W X Y Z # 

Ghost Town Tabs (ver.1)

Cheap Trick
Rating:
0/5 (0 votes)

Hard to play? Try these video lessons and learn fast.
                Cheap Trick - Ghost Town 


Intro: 
F                      Dm
Ah  ah  ah  ah  ah
Am                  A#
Ah  ah  ah  ah  ah


Verso:
	       F
Well the streets are all crowded
	    C
Lots of people around
	        Dm
And there's music playing
           A#
But I can't hear a sound
	     F
Just the sound of the rain
	  C 
Falling silently down
     Dm
Livin' ain't been livin'
	     A#
Since you put Mr Down
 Dm		  C	 	 G         
Yeah, life goes on around me everyday
	A
But it might as well be half a million miles away


Coro:
		   F	    Dm
It's like a ghost town without your love
	Am	  	A#
Like a ghost town without your love
	  F		     Dm 
Like a ghost town, baby, can't you see?
         Am          A#   			       F 
It's a ghost town until you come back to me
	               Dm
ah,  ah,  ah,  ah,  ah,
		          Am
till you come back to me
		   A#
ah,  ah,  ah,  ah,  ah


Verso 2:

Well I wish I still had you
Had you here next to me
Baby, where did you go?
Baby, why did you leave?

Though the world, it keeps turnin'
But it don't turn for me
Without you in my life
My life ain't no place to be

There's only lonely days and empty nights
Ain't the same without you, baby, nothin' feelin' right
nothin' feelin' right.


Repetir el Coro 

	Dm	     C
Darlin', I wanna leave this town
  Dm	          C       G	
Don't wanna be around
Dm            C             G
I'm gonna leave this town
                  F
It's like a ghost town


Solo:

---------5-8-|-5-8-----|---------|---6-6-5h6-|
-----6-8-----|-----8-6-|-5-------|-6---------|
-5-7---------|---------|---7-5---|-----------|
-------------|---------|-------7-|-----------|
-------------|---------|---------|-----------|
-------------|---------|---------|-----------|

-----------|-5-------|-------12-17-|-11-11-10-|-11-11-10-|
-----------|---8-6---|-12-13-------|----------|----------|
-----------|-------7-|-------------|----------|----------|
---5-7-8-7-|---------|-------------|----------|----------|
-8---------|---------|-------------|----------|----------|
-----------|---------|-------------|----------|----------|

Repetir el Coro 3 veces
            
Hard to play? Try these video lessons and learn fast. | Correct




comments powered by Disqus
↑ Back to top | Tablatures and chords are parodies/interpretations of the original songs. You may use it for private study, scholarship, research or language learning purposes only