>
 >
Can't Stop Fallin' Into Love 1

Can't Stop Fallin' Into Love 1 Bass Tabs

Cheap Trick - Can't Stop Fallin' Into Love 1 chords, tabs, tablatures, lyrics

Guitar lessons | Add/correct | Request | Top 50 tabs Artists:  A B C D E F G H I J K L M N O P Q R S T U V W X Y Z 0-9

Can't Stop Fallin' Into Love 1 Bass Tabs – Cheap Trick

CD, Sheet music, Poster

Do you like Can't Stop Fallin' Into Love 1? Share with your friends now
Bass TabsBass Tabs v2
tuning:  standard

intro/main bass riff on a 6 string
|----intro---------|
C------8-8-8-6-------------6-8--8-6------------------------------------
G--------------9-6-------9----------9-6--------------------------------
D--9-------------------9----------------9--------6-7-------------------
A--9-----------------7---------------------9-9-9------------------7----
E--7--------------------------------------------------7-7-7-7-7-9---9--
B--0-------------------------------------------------------------------

and for those players on a four-string, or twelve-string	

|------intro----------|
G----13-13-13-11-----------------11-13---13-11--------------------------
D-9--------------14-11--------14---------------14-11--------------------
A-9------------------------14------------------------14-------------14--
E-7---------------------12------------------------------14-14-14-16-----

G---------------------
D---------------------
A----------------7----
E----7-7-7-7-7-9---9--


intro
riff twice

verse
E
       A          G#          B
E              
            A        G#            B


prechorus
F#                               G#                       C   C#  B
F#                           G#              E

chorus  (with riff twice)

second verse

prechorus

chorus (with riff twice)

prechorus

chorus (with riff twice)

bridge
A   G#   F#   E   D    E

outro:  chorus w/ riff

                        -I'm here, I'm queer, I play 5-string bass (high c)





Comments


Popular Cheap Trick tabs & chords
Best Friend Chords
Dont Be Cruel Chords
Just Got Back Chords
Never Had A Lot To Lose Chords
Dream Police 1 Tabs
Surrender 1 Tabs
Surrender 2 Tabs
Voices Tabs
On Top Of The World Ukulele
Walk Away Ukulele


Song lyrics



↑ Back to top | Tablatures and chords are parodies/interpretations of the original songs. You may use it for private study, scholarship, research or language learning purposes only
© 2014 AZChords.com Contact us | Privacy policy | DMCA | Add/correct tabs | Request tabs | Top 50 tabs