» » »

Cheap Suits, Its Time Tabs (ver.1)

Artists:  A B C D E F G H I J K L M N O P Q R S T U V W X Y Z # 

Its Time Tabs (ver.1)

Cheap Suits Tabs
 Rating:
4/5 (4 votes)
Its Time lessons Tabs too difficult? Try these video lessons and learn fast
1
                ----------------------------------------------------------------------------
                             IT'S TIME - Cheap Suits
----------------------------------------------------------------------------

Tuning: Standard

INTRO
e|---------------------------------------------------|
B|---------------------------------------------------|
G|---------------------------------------------------| X3
D|----------2----------0------4-4-5-5-4-4------------|
A|--0-0-4-4--------2-2----5-5-------------5-5-4-4-5--|
E|-------------3-3-----------------------------------|

VERSE (mute with downstroke, hit notes on upstoke)
e|-----------------x5x5x5x5------------|
B|-x5x5x5x5x3x3x3x3x7x7x7x7x5x5x5x5----|
G|-x6x6x6x6x4x4x4x4x7x7x7x7x6x6x6x6----| X4
D|-x7x7x7x7x5x5x5x5--------x7x7x7x7----|
A|-------------------------------------|
E|-------------------------------------|

CHORUS (mute with downstroke, hit notes on upstoke)
e|---------x5x5x5x5--------------------------x5x5x5x5-------55-55--|
B|-x3x3x3x3x7x7x7x7x5x5x5x5x5x5x5x5--x3x3x3x3x7x7x7x7-55-55-55-55--|
G|-x4x4x4x4x7x7x7x7x6x6x6x6x6x6x6x6--x4x4x4x4x7x7x7x7-66-66-66-66--| X2
D|-x5x5x5x5--------x7x7x7x7x7x7x7x7--x5x5x5x5---------77-77-77-77--|
A|-----------------------------------------------------------------|
E|-----------------------------------------------------------------|

INTRO  X2
VERSE  X4
CHORUS X2
Solo is Intro X2 the rest I didn't tab yet (just play the verse behind it)
CHORUS X2

ALTERED CHORUS (at 2:46 mins)
e|---------x5x5x5x5--------------------------x5x5x5x5-------55-55--|
B|-x3x3x3x3x7x7x7x7------------------x3x3x3x3x7x7x7x7-55-55-55-55--|
G|-x4x4x4x4x7x7x7x7-----REST---------x4x4x4x4x7x7x7x7-66-66-66-66--| X2
D|-x5x5x5x5--------------------------x5x5x5x5---------77-77-77-77--|
A|-----------------------------------------------------------------|
E|-----------------------------------------------------------------|

e|---------x5x5x5x5--------------------------x5x5x5x5-------55-5---|
B|-x3x3x3x3x7x7x7x7------------------x3x3x3x3x7x7x7x7-55-55-55-5---|
G|-x4x4x4x4x7x7x7x7-----REST---------x4x4x4x4x7x7x7x7-66-66-66-6---| X2
D|-x5x5x5x5--------------------------x5x5x5x5---------77-77-77-7---|
A|-----------------------------------------------------------------|
E|-----------------------------------------------------------------|

============================================================================
            
Submit corrections

comments powered by Disqus
↑ Back to top | Cheap Suits Tabs for Its Time. Lyrics for acoustic guitar and electric guitar. 1 Tablatures and chords are parodies/interpretations of the original songs. You may use it for private study, scholarship, research or language learning purposes only