» » »

Chase And Status, Pieces Tabs (ver.6)

Artists:  A B C D E F G H I J K L M N O P Q R S T U V W X Y Z # 

Pieces Tabs (ver.6)

Chase And Status Tabs
 Rating:
4/5 (4 votes)
Pieces lessons Tabs too difficult? Try these video lessons and learn fast
1
                (Intro)
-----------------------------------------------------------------------------
                             PIECES - Chase and Status (feat. Plan B)
-----------------------------------------------------------------------------

Tuning: Standard

e|-5--5--5-5--5---5-5-7--7--7-7--7---7-7-3-|
B|-5--5--5-5--5---5-5-7--7--7-7--7---7-7-3-|
G|-6--6--6-6--6---6-6-8--8--8-8--8---8-8-4-|
D|-7--7--7-7--7---7-7-9--9--9-9--9---9-9-5-|
A|-7--7--7-7--7---7-7-9--9--9-9--9---9-9-5-|
E|-5--5--5-5--5---5-5-7--7--7-7--7---7-7-3-|

e|--3--3-3--3---3-3-1--1--1-1--1---1-1-|
B|--3--3-3--3---3-3-1--1--1-1--1---1-1-|
G|--4--4-4--4---4-4-2--2--2-2--2---2-2-|   X5 (from beginning)
D|--5--5-5--5---5-5-3--3--3-3--3---3-3-|
A|--5--5-5--5---5-5-3--3--3-3--3---3-3-|
E|--3--3-3--3---3-3-1--1--1-1--1---1-1-|

e|-5-
B|-5-  Let this last chord ring
G|-6-
D|-7-
A|-7-
E|-5-


This is definateley the way he plays it in the video, but his guitar may be
tuned a half step down, in which case either re-tune your guitar or simply
move all the chords a semi-tone down.

Please leave comments and corrections where appropriate.
            
Submit corrections

comments powered by Disqus
↑ Back to top | Chase And Status Tabs for Pieces. Lyrics for acoustic guitar and electric guitar. 1 Tablatures and chords are parodies/interpretations of the original songs. You may use it for private study, scholarship, research or language learning purposes only