» » »

Chase And Status, Let You Go Tabs (ver.1)

Artists:  A B C D E F G H I J K L M N O P Q R S T U V W X Y Z # 

Let You Go Tabs (ver.1)

Chase And Status Tabs
 Rating:
4.2/5 (5 votes)
Let You Go lessons Tabs too difficult? Try these video lessons and learn fast
                -------------------------------------------------------------------------------
                             LET YOU GO - Chase & Status
-------------------------------------------------------------------------------

Tuning: Standard


"You said, can't go...."
e|---------------------------------------|
B|-2-------------------------------------|
G|-3-----------2-----3-------------------|
D|-3-----------3-----4-------------------|
A|-1-----------3-----4-------------------|
E|-------------1-----2-------------------|

"You're gone.."
e|--------------------------------------|
B|-2----2-------------------------------|
G|-3----3-----2-----3-------------------|
D|-3----3-----3-----4-------------------|
A|-1----1-----3-----4-------------------|
E|------------1-----2-------------------|

"...you're wrong"
e|-----------|
B|-2---------|
G|-3---------|
D|-3---------|
A|-1---------|
E|-----------|

"there's nowhere..**"      "...let you leave.."    "...go....."
e|--------------------| |-----------------|     |-------|
B|--2-------------5---| |---------------5-|     |--5-----|
G|--3----2----3---5---| |---2---2---3---5-|     |--5-----|
D|--3----3----4---5---| |---3---3---4---5-|     |--5-----|
A|--1----3----4---3---| |---3---3---4---3-|     |--3-----|
E|-------1----2-------| |---1---1---2-----|     | -------|


Main Riff Thing    "I will let you goooooo.."
e|----------------------------------------|
B|-2-2-2-2--------------------5-5-5-5-----|
G|-3-3-3-3----2--3---3-3-3-3--5-5-5-5-----|
D|-3-3-3-3----3--4---4-4-4-4--5-5-5-5-----|
A|-1-1-1-1----3--4---4-4-4-4--3-3-3-3-----|
E|------------1--2---2-2-2-2--------------|


 "No way on earth.."
e|-----------------|
B|---------------5-|
G|---2---3---5---5-|
D|---3---4---6---5-|
A|---3---4---6---3-|
E|---1---2---4-----|

Goes a bit heavy here, copy the
"there's nowhere..**"  chord sequence.


(If you can call it one..) Verse
e|-----------------------------|
B|-2--------------5------------|
G|-3------3---3---5------------|
D|-3------4---4---5------------|
A|-1------4---4---3------------|
E|--------2---2----------------|


All the other bits are all sections of those parts, not a very difficult song,
done right you could really 'Pendulum' this up live. (no other way of describing it!)


Incase I've got some bits backwards, basically, you're chords are:

Asharp Minor

F Major

Fsharp Major

C Major

Rare use of G Major

Go.
            
Submit corrections

comments powered by Disqus
↑ Back to top | Chase And Status Tabs for Let You Go. Lyrics for acoustic guitar and electric guitar. Tablatures and chords are parodies/interpretations of the original songs. You may use it for private study, scholarship, research or language learning purposes only