» » »

Blues For Alice Tabs (ver.1)

Artists:  A B C D E F G H I J K L M N O P Q R S T U V W X Y Z # 

Blues For Alice Tabs (ver.1)

Charlie Parker
Rating:
1/5 (1 vote)

Hard to play? Try these video lessons and learn fast.
                ++++++++++++++++++++++++++++++++++++

Famous Charlie Parker Blues


+++++++++++++++++++++++++++++++++++++


   F             E-75b   A9b        D-7  G7

|--------------|-----------------|---------------|
|--6-----6-----|---5-------------|---------------|
|----5-----5---|-7---4-5-6-------|---------------|
|------7-----7-|-----------8-5-6-|-7-----5-7-----|
|--------------|-----------------|---8-5-----8-7-|
|--------------|-----------------|---------------|


  c-7  F7               Bb7              Bb-7  Eb7
|--------------------|---------------|-----------------|
|--------------------|---------------|-----------------|
|--------7-6---------|-5-------------|-8-6-----5-------|
|----5-8---------5---|---8-8---6---5-|-----6-------5-7-|
|--6---------8-8---8-|-------8-------|-------8---8-----|
|--------------------|-----------6---|-----------------|


 A-7  D7     Ab-7 Db7   G-7

|------------|---------|---------------|
|----------2-|---------|---6-6-5-------|
|------------|-4---3---|---------7-----|
|------------|---4---6-|-5---------8-5-|
|--7-----5---|---------|---------------|
|----8-8-----|---------|---------------|


    C7               F  D-7     G-7   C7
|------------------|-----------|---------|
|------------------|-----------|---------|
|------5---8-----5-|-------7-7-|---------|
|--7-5---8---------|-7---5-----|-8-8---7-|
|------------------|---8-------|-----8---|
|------------------|-----------|---------|
            
Hard to play? Try these video lessons and learn fast. | Correct




comments powered by Disqus
↑ Back to top | Tablatures and chords are parodies/interpretations of the original songs. You may use it for private study, scholarship, research or language learning purposes only