» » »

Charlie Mcdonnell, Blink Tabs (ver.1)

Artists:  A B C D E F G H I J K L M N O P Q R S T U V W X Y Z # 

Blink Tabs (ver.1)

Charlie Mcdonnell Tabs
4/5 (4 votes)
Blink lessons Tabs too difficult? Try these video lessons and learn fast
E ----------------------------------------------------|
B ----------3------------------------1----------------|
G ----2---------2---2---------2----------2---2--------|
D --0---0---------0---------3---3----------3----------|
A ----------------------------------------------------|
E ----------------------------------------------------|

E ------------------------------------0---|
B ---------1--------------------------0---|
G -------0-------0----0--------------0----|
D -----2-------3----2-------------0-------|
A ---3--------------------------2---------|

This is my first tab, but I'm pretty sure this is accurate.
Submit corrections

comments powered by Disqus
↑ Back to top | Charlie Mcdonnell Tabs for Blink. Lyrics for acoustic guitar and electric guitar. Tablatures and chords are parodies/interpretations of the original songs. You may use it for private study, scholarship, research or language learning purposes only