» » »

So Os Loucos Sabem Chords (ver.1)

Artists:  A B C D E F G H I J K L M N O P Q R S T U V W X Y Z # 

So Os Loucos Sabem Chords (ver.1)

Charlie Brown Jr
Rating:
0/5 (0 votes)

Hard to play? Try these video lessons and learn fast.
                (intro 2x) (riff 1)

Em           C9
Agora eu sei
G
Exatamente o que fazer
Em           G        D
Bom recomeçar, poder contar com você
                     Em          C9
Pois eu me lembro de tudo, irmão
G
Eu estava lá também
  Am
O homem quando está em paz
 B C9
Não quer guerra com ninguém
Em                       C9
Eu segurei minhas lágrimas
G
Pois não queria demonstrar a emoção
Em                           G
Já que estava ali só pra observar
D
E aprender um pouco mais sobre a percepção
Em                               C9                 G
Eles dizem que é impossível encontrar o amor sem perder a razão
Am                              B C9
Mas pra quem tem pensamento forte o impossível é só questão de opinião
 Em               C9        G
E disso os loucos sabem
 Em            G    D
Só os loucos sabem
 Em               C9      G
Disso os loucos sabem
 Am              B C9
Só os loucos sabem

(riff 1 - 2x)

Em           C9          G
Toda a positividade eu desejo a você
         Em         G      D
Pois precisamos disso nos dias de luta
Em                 C9
O medo cega os nossos sonhos
G
O medo cega os nossos sonhos
Am                B C9
Menina linda, eu quero morar na sua rua
    Em      C9    G
Você deixou saudade
   Em     G       D
Você deixou saudade
     Em          C9
Quero te ver outra vez
       G
Quero te ver outra vez
Am            B C9
Você deixou saudade

(riff 2)

Em             C9
Agora eu sei
G
Exatamente o que fazer
Em              C9     D
Bom recomeçar, poder contar com você
                     Em
Pois eu me lembro de tudo, irmão
C9       G
Eu estava lá também
  Am                       B C9
O homem quando está em paz

Não quer guerra com ninguém

(riff 1 - 2x)

  (riff 1)                                          Em  C9
E|-----------------------------------------------7---3-----|
B|-10/12-12-12---10-10-10---13-13---10/12--10-8--8---3-----|
G|-x-x---x--x----x--x--x----x--x----x-x----x--x--9---0-----|
D|-7/9---9--9----7--7--7----10-10---7/9----7--5--9---2-----|
A|-----------------------------------------------7---3-----|
E|---------------------------------------------------------|

       C9
E|-3-3-3-3-....-3----|
B|-3-3-3-3-....-3----|
G|-0-0-0-0-....-0----|
D|-2-2-2-2-....-2----|
A|-3-3-3-3-....-3----|
E|---------....------|

(riff 2) (2x)
E|-----------------------------------------------------------------------------------------------|
B|-----------------------------12-10-12-10-12-12-12-------8-10-12-12-12-12-12-(na segunda vez)---|
G|-12-11-12-11-12-12-12--------x--x--x--x--x--x--x--------x-x--x--x--x--x--9--(repete essa parte)|
D|-x--x--x--x--x--x--x---(2x)--9--7--9--7--9--9--9--------5-7--9--9--9--9--9--(2 vezes)----------|
A|-10-9--10-9--10-10-10--------------------------------------------------------------------------|
E|-----------------------------------------------------------------------------------------------|
            
Hard to play? Try these video lessons and learn fast. | Correct




comments powered by Disqus
↑ Back to top | Tablatures and chords are parodies/interpretations of the original songs. You may use it for private study, scholarship, research or language learning purposes only